  0
SECTION
  2
HEADER
  9
$ACADVER
  1
AC1009
  9
$INSBASE
 10
0.0
 20
0.0
 30
0.0
  9
$EXTMIN
 10
-1.000001102586793
 20
-83.903199925991316
 30
0.0
  9
$EXTMAX
 10
856.99999889741321
 20
819.11896685818658
 30
0.0000000000001137
  9
$LIMMIN
 10
0.0
 20
0.0
  9
$LIMMAX
 10
420.0
 20
297.0
  9
$ORTHOMODE
 70
     1
  9
$REGENMODE
 70
     1
  9
$FILLMODE
 70
     1
  9
$QTEXTMODE
 70
     0
  9
$MIRRTEXT
 70
     0
  9
$DRAGMODE
 70
     2
  9
$LTSCALE
 40
40.0
  9
$OSMODE
 70
    55
  9
$ATTMODE
 70
     1
  9
$TEXTSIZE
 40
70.0
  9
$TRACEWID
 40
1.0
  9
$TEXTSTYLE
  7
STANDARD
  9
$CLAYER
  8
0
  9
$CELTYPE
  6
BYLAYER
  9
$CECOLOR
 62
   256
  9
$DIMSCALE
 40
50.0
  9
$DIMASZ
 40
2.5
  9
$DIMEXO
 40
0.625
  9
$DIMDLI
 40
3.75
  9
$DIMRND
 40
0.0
  9
$DIMDLE
 40
0.0
  9
$DIMEXE
 40
1.25
  9
$DIMTP
 40
0.0
  9
$DIMTM
 40
0.0
  9
$DIMTXT
 40
2.5
  9
$DIMCEN
 40
2.5
  9
$DIMTSZ
 40
0.0
  9
$DIMTOL
 70
     0
  9
$DIMLIM
 70
     0
  9
$DIMTIH
 70
     0
  9
$DIMTOH
 70
     0
  9
$DIMSE1
 70
     0
  9
$DIMSE2
 70
     0
  9
$DIMTAD
 70
     1
  9
$DIMZIN
 70
     8
  9
$DIMBLK
  1

  9
$DIMASO
 70
     1
  9
$DIMSHO
 70
     1
  9
$DIMPOST
  1

  9
$DIMAPOST
  1

  9
$DIMALT
 70
     0
  9
$DIMALTD
 70
     3
  9
$DIMALTF
 40
0.03937007874016
  9
$DIMLFAC
 40
1.0
  9
$DIMTOFL
 70
     1
  9
$DIMTVP
 40
0.0
  9
$DIMTIX
 70
     0
  9
$DIMSOXD
 70
     0
  9
$DIMSAH
 70
     0
  9
$DIMBLK1
  1

  9
$DIMBLK2
  1

  9
$DIMSTYLE
  2
ISO-25
  9
$DIMCLRD
 70
     0
  9
$DIMCLRE
 70
     0
  9
$DIMCLRT
 70
     0
  9
$DIMTFAC
 40
1.0
  9
$DIMGAP
 40
0.625
  9
$LUNITS
 70
     2
  9
$LUPREC
 70
     4
  9
$SKETCHINC
 40
1.0
  9
$FILLETRAD
 40
0.0
  9
$AUNITS
 70
     0
  9
$AUPREC
 70
     0
  9
$MENU
  1
.
  9
$ELEVATION
 40
0.0
  9
$PELEVATION
 40
0.0
  9
$THICKNESS
 40
0.0
  9
$LIMCHECK
 70
     0
  9
$BLIPMODE
 70
     0
  9
$CHAMFERA
 40
0.0
  9
$CHAMFERB
 40
0.0
  9
$SKPOLY
 70
     0
  9
$TDCREATE
 40
2456534.43126735
  9
$TDUPDATE
 40
2456544.048015405
  9
$TDINDWG
 40
0.0846760995
  9
$TDUSRTIMER
 40
0.0846760995
  9
$USRTIMER
 70
     1
  9
$ANGBASE
 50
0.0
  9
$ANGDIR
 70
     0
  9
$PDMODE
 70
     0
  9
$PDSIZE
 40
0.0
  9
$PLINEWID
 40
0.0
  9
$COORDS
 70
     0
  9
$SPLFRAME
 70
     0
  9
$SPLINETYPE
 70
     6
  9
$SPLINESEGS
 70
     8
  9
$ATTDIA
 70
     0
  9
$ATTREQ
 70
     1
  9
$HANDLING
 70
     1
  9
$HANDSEED
  5
C79
  9
$SURFTAB1
 70
     6
  9
$SURFTAB2
 70
     6
  9
$SURFTYPE
 70
     6
  9
$SURFU
 70
     6
  9
$SURFV
 70
     6
  9
$UCSNAME
  2

  9
$UCSORG
 10
0.0
 20
0.0
 30
0.0
  9
$UCSXDIR
 10
1.0
 20
0.0
 30
0.0
  9
$UCSYDIR
 10
0.0
 20
1.0
 30
0.0
  9
$PUCSNAME
  2

  9
$PUCSORG
 10
0.0
 20
0.0
 30
0.0
  9
$PUCSXDIR
 10
1.0
 20
0.0
 30
0.0
  9
$PUCSYDIR
 10
0.0
 20
1.0
 30
0.0
  9
$USERI1
 70
     0
  9
$USERI2
 70
     0
  9
$USERI3
 70
     0
  9
$USERI4
 70
     0
  9
$USERI5
 70
     0
  9
$USERR1
 40
0.0
  9
$USERR2
 40
0.0
  9
$USERR3
 40
0.0
  9
$USERR4
 40
0.0
  9
$USERR5
 40
0.0
  9
$WORLDVIEW
 70
     1
  9
$SHADEDGE
 70
     3
  9
$SHADEDIF
 70
    70
  9
$TILEMODE
 70
     1
  9
$MAXACTVP
 70
    64
  9
$PLIMCHECK
 70
     0
  9
$PEXTMIN
 10
0.0
 20
0.0
 30
0.0
  9
$PEXTMAX
 10
0.0
 20
0.0
 30
0.0
  9
$PLIMMIN
 10
0.0
 20
0.0
  9
$PLIMMAX
 10
12.0
 20
9.0
  9
$UNITMODE
 70
     0
  9
$VISRETAIN
 70
     1
  9
$PLINEGEN
 70
     0
  9
$PSLTSCALE
 70
     1
  0
ENDSEC
  0
SECTION
  2
TABLES
  0
TABLE
  2
VPORT
 70
     1
  0
VPORT
  2
*ACTIVE
 70
     0
 10
0.0
 20
0.0
 11
1.0
 21
1.0
 12
-514.3733041298666
 22
-164.55344067115169
 13
0.0
 23
0.0
 14
10.0
 24
10.0
 15
10.0
 25
10.0
 16
0.0
 26
0.0
 36
1.0
 17
1006.361596407369
 27
380.75980781003699
 37
-3.863893759801003
 40
1018.527970858297
 41
2.129142857142857
 42
50.0
 43
0.0
 44
0.0
 50
0.0
 51
0.0
 71
     0
 72
  1000
 73
     1
 74
     3
 75
     0
 76
     0
 77
     0
 78
     0
  0
ENDTAB
  0
TABLE
  2
LTYPE
 70
    35
  0
LTYPE
  2
CONTINUOUS
 70
     0
  3
Solid line
 72
    65
 73
     0
 40
0.0
  0
LTYPE
  2
DASHDOT
 70
     0
  3
Dash dot __ . __ . __ . __ . __ . __ . __ . __
 72
    65
 73
     4
 40
25.399999999999999
 49
12.699999999999999
 49
-6.3499999999999988
 49
0.0
 49
-6.3499999999999988
  0
LTYPE
  2
CADVENT_ABOVE_FLOOR
 70
     0
  3
above floor      ____ .. ____ .. ___
 72
    65
 73
     6
 40
12.4
 49
8.4000000000000004
 49
-1.0
 49
0.5
 49
-1.0
 49
0.5
 49
-1.0
  0
LTYPE
  2
CADVENT_BELOW_FLOOR
 70
     0
  3
below floor      __ __ __ __ __ __
 72
    65
 73
     2
 40
7.5
 49
6.0
 49
-1.5
  0
LTYPE
  2
CADVENT_ABOVE_CUT
 70
     0
  3
above cut       ___ . ___ . ___ . __
 72
    65
 73
     4
 40
10.9
 49
8.4000000000000004
 49
-1.0
 49
0.5
 49
-1.0
  0
LTYPE
  2
CADVENT_CONTINUOUS
 70
     0
  3
continuous      _____________
 72
    65
 73
     2
 40
2.0
 49
1.0
 49
1.0
  0
LTYPE
  2
CADVENT_CENTERLINE
 70
     0
  3
centerline         ___ . ___ . ___
 72
    65
 73
     4
 40
9.9000000000000004
 49
7.4000000000000004
 49
-1.0
 49
0.5
 49
-1.0
  0
LTYPE
  2
CADVENT_HIDDEN
 70
     0
  3
hidden              . . . . . . . . . . .
 72
    65
 73
     2
 40
0.8
 49
0.25
 49
-0.55
  0
LTYPE
  2
CADVENT_LINING
 70
     0
  3
lining       __ __ __ __ __ __
 72
    65
 73
     2
 40
7.5
 49
6.0
 49
-1.5
  0
LTYPE
  2
CADVENT_INSULATION
 70
     0
  3
insulation       __ __ __ __ __ __
 72
    65
 73
     2
 40
7.5
 49
6.0
 49
-1.5
  0
LTYPE
  2
CADVENT_COLDWATER
 70
     0
  3
coldwater       _________________
 72
    65
 73
     2
 40
2.0
 49
1.0
 49
1.0
  0
LTYPE
  2
CADVENT_VARMWATER
 70
     0
  3
varmwater       __ .. __ .. __ .. __ .. __ .. _
 72
    65
 73
     6
 40
8.0
 49
5.0
 49
-1.0
 49
0.0
 49
-1.0
 49
0.0
 49
-1.0
  0
LTYPE
  2
CADVENT_SPRINKLER
 70
     0
  3
sprinkler       ________________
 72
    65
 73
     2
 40
2.0
 49
1.0
 49
1.0
  0
LTYPE
  2
CADVENT_HEATING
 70
     0
  3
heating       __ ... __ ... __ ... __ ... __ ..
 72
    65
 73
     8
 40
9.0
 49
5.0
 49
-1.0
 49
0.0
 49
-1.0
 49
0.0
 49
-1.0
 49
0.0
 49
-1.0
  0
LTYPE
  2
CADVENT_COOLING
 70
     0
  3
cooling       ________________
 72
    65
 73
     2
 40
2.0
 49
1.0
 49
1.0
  0
LTYPE
  2
CADVENT_DRAINAGE
 70
     0
  3
drainage       __ . __ . __ . __ . __ . __
 72
    65
 73
     4
 40
7.0
 49
5.0
 49
-1.0
 49
0.0
 49
-1.0
  0
LTYPE
  2
CADVENT_SEWER
 70
     0
  3
sewer      __ . __ . __ . __ . __ . __
 72
    65
 73
     4
 40
7.0
 49
5.0
 49
-1.0
 49
0.0
 49
-1.0
  0
LTYPE
  2
CADVENT_VWATERCIRC
 70
     0
  3
vwatercirc       __ ... __ ... __ ... __ ... __
 72
    65
 73
     8
 40
9.0
 49
5.0
 49
-1.0
 49
0.0
 49
-1.0
 49
0.0
 49
-1.0
 49
0.0
 49
-1.0
  0
ENDTAB
  0
TABLE
  2
LAYER
 70
     5
  0
LAYER
  2
0
 70
     0
 62
     7
  6
CONTINUOUS
  0
LAYER
  2
VZT-AIRCOMPONENTS-VENTILAT
 70
     0
 62
     5
  6
CONTINUOUS
  0
LAYER
  2
VZT-AIRCOMPONENTS-VENTILA0
 70
     0
 62
     7
  6
DASHDOT
  0
LAYER
  2
VZT-AIRCOMPONENTS-VENTILA1
 70
     0
 62
     7
  6
CONTINUOUS
  0
LAYER
  2
VZT-AIRCOMPONENTS-VENTILA2
 70
     0
 62
     7
  6
CONTINUOUS
  0
ENDTAB
  0
TABLE
  2
STYLE
 70
     2
  0
STYLE
  2
STANDARD
 70
     0
 40
0.0
 41
1.0
 50
0.0
 71
     0
 42
70.0
  3
txt
  4

  0
ENDTAB
  0
TABLE
  2
VIEW
 70
     1
  0
VIEW
  2
CADVENT
 70
     0
 40
3000.0
 10
1866.7266657738701
 20
876.7503126957256
 41
6000.0
 11
0.0
 21
0.0
 31
1.0
 12
0.0
 22
0.0
 32
0.0
 42
50.0
 43
0.0
 44
0.0
 50
0.0
 71
     0
  0
ENDTAB
  0
TABLE
  2
UCS
 70
     0
  0
ENDTAB
  0
TABLE
  2
APPID
 70
     5
  0
APPID
  2
ACAD
 70
     0
  0
APPID
  2
ACAD_PSEXT
 70
     0
  0
APPID
  2
ACAECLAYERSTANDARD
 70
     0
  0
APPID
  2
ACAD_EXEMPT_FROM_CAD_STANDARDS
 70
     0
  0
APPID
  2
CONTENTBLOCKICON
 70
     0
  0
ENDTAB
  0
TABLE
  2
DIMSTYLE
 70
     3
  0
DIMSTYLE
  2
ISO-25
 70
     0
  3

  4

  5

  6

  7

 40
1.0
 41
2.5
 42
0.625
 43
3.75
 44
1.25
 45
0.0
 46
0.0
 47
0.0
 48
0.0
140
2.5
141
2.5
142
0.0
143
0.03937007874016
144
1.0
145
0.0
146
1.0
147
0.625
 71
     0
 72
     0
 73
     0
 74
     0
 75
     0
 76
     0
 77
     1
 78
     8
170
     0
171
     3
172
     1
173
     0
174
     0
175
     0
176
     0
177
     0
178
     0
  0
ENDTAB
  0
ENDSEC
  0
SECTION
  2
BLOCKS
  0
BLOCK
  8
0
  2
$MODEL_SPACE
 70
     0
 10
0.0
 20
0.0
 30
0.0
  3
$MODEL_SPACE
  1

  0
ENDBLK
  5
21
  8
0
  0
BLOCK
 67
     1
  8
0
  2
$PAPER_SPACE
 70
     0
 10
0.0
 20
0.0
 30
0.0
  3
$PAPER_SPACE
  1

  0
ENDBLK
  5
D5
 67
     1
  8
0
  0
BLOCK
  8
0
  2
MRV_250_-_POHLAD_BOCNY
 70
     0
 10
0.0
 20
0.0
 30
0.0
  3
MRV_250_-_POHLAD_BOCNY
  1

  0
LINE
  5
B18
  8
VZT-AIRCOMPONENTS-VENTILAT
 10
40.0
 20
138.5
 30
0.0
 11
357.0
 21
138.5
 31
0.0
  0
LINE
  5
B19
  8
VZT-AIRCOMPONENTS-VENTILAT
 10
40.0
 20
-138.5
 30
0.0
 11
357.0
 21
-138.5
 31
0.0
  0
LINE
  5
B1A
  8
VZT-AIRCOMPONENTS-VENTILAT
 10
40.0
 20
138.5
 30
0.0
 11
40.0
 21
-138.5
 31
0.0
  0
LINE
  5
B1B
  8
VZT-AIRCOMPONENTS-VENTILAT
 10
357.0
 20
138.5
 30
0.0
 11
357.0
 21
-138.5
 31
0.0
  0
LINE
  5
B1C
  8
VZT-AIRCOMPONENTS-VENTILA1
 10
40.0
 20
128.5
 30
0.0
 11
357.0
 21
128.5
 31
0.0
  0
INSERT
  5
B1D
  8
0
  2
*U16
 10
0.0
 20
0.0
 30
0.0
  0
POLYLINE
  5
B1E
  8
VZT-AIRCOMPONENTS-VENTILA2
 66
     1
 10
0.0
 20
0.0
 30
0.0
 70
     1
  0
VERTEX
  5
C58
  8
VZT-AIRCOMPONENTS-VENTILA2
 10
45.0
 20
123.5
 30
0.0
  0
VERTEX
  5
C59
  8
VZT-AIRCOMPONENTS-VENTILA2
 10
138.47768341858361
 20
123.5
 30
0.0
  0
VERTEX
  5
C5A
  8
VZT-AIRCOMPONENTS-VENTILA2
 10
138.47768341858361
 20
85.631442620745716
 30
0.0
  0
VERTEX
  5
C5B
  8
VZT-AIRCOMPONENTS-VENTILA2
 10
45.0
 20
85.631442620745716
 30
0.0
  0
SEQEND
  5
C5C
  8
VZT-AIRCOMPONENTS-VENTILA2
  0
LINE
  5
B1F
  8
VZT-AIRCOMPONENTS-VENTILA1
 10
128.5
 20
-0.0000000000002274
 30
0.0
 11
233.5
 21
60.621778264910738
 31
0.0
  0
CIRCLE
  5
B20
  8
VZT-AIRCOMPONENTS-VENTILA1
 10
198.5
 20
0.0
 30
0.0
 40
70.0
  0
LINE
  5
B21
  8
VZT-AIRCOMPONENTS-VENTILA1
 10
128.5
 20
-0.0000000000002274
 30
0.0
 11
233.5
 21
-60.621778264910738
 31
0.0
  0
LINE
  5
B22
  8
VZT-AIRCOMPONENTS-VENTILA1
 10
233.5
 20
60.621778264910738
 30
0.0
 11
233.5
 21
-60.621778264910738
 31
0.0
  0
LINE
  5
B23
  8
VZT-AIRCOMPONENTS-VENTILA0
 10
357.0
 20
0.0
 30
0.0
 11
397.0
 21
0.0
 31
0.0
  0
LINE
  5
B24
  8
VZT-AIRCOMPONENTS-VENTILAT
 10
357.0
 20
-124.0
 30
0.0
 11
397.0
 21
-124.0
 31
0.0
  0
LINE
  5
B25
  8
VZT-AIRCOMPONENTS-VENTILAT
 10
357.0
 20
124.0
 30
0.0
 11
397.0
 21
124.0
 31
0.0
  0
LINE
  5
B26
  8
VZT-AIRCOMPONENTS-VENTILAT
 10
397.0
 20
124.0
 30
0.0
 11
397.0
 21
-124.0
 31
0.0
  0
LINE
  5
B27
  8
VZT-AIRCOMPONENTS-VENTILA0
 10
40.0
 20
0.0
 30
0.0
 11
0.0
 21
0.0
 31
0.0
  0
LINE
  5
B28
  8
VZT-AIRCOMPONENTS-VENTILAT
 10
40.0
 20
-124.0
 30
0.0
 11
0.0
 21
-124.0
 31
0.0
  0
LINE
  5
B29
  8
VZT-AIRCOMPONENTS-VENTILAT
 10
40.0
 20
124.0
 30
0.0
 11
0.0
 21
124.0
 31
0.0
  0
LINE
  5
B2A
  8
VZT-AIRCOMPONENTS-VENTILAT
 10
0.0
 20
124.0
 30
0.0
 11
0.0
 21
-124.0
 31
0.0
  0
ENDBLK
  5
B17
  8
0
  0
BLOCK
  8
0
  2
MRV_250_-_POHLAD_CELNY
 70
     0
 10
0.0
 20
0.0
 30
0.0
  3
MRV_250_-_POHLAD_CELNY
  1

  0
LINE
  5
B2F
  8
VZT-AIRCOMPONENTS-VENTILAT
 10
-160.99999999999989
 20
-138.50000000000011
 30
0.0
 11
161.0
 21
-138.50000000000011
 31
0.0
  0
LINE
  5
B30
  8
VZT-AIRCOMPONENTS-VENTILAT
 10
161.0
 20
-138.50000000000011
 30
0.0
 11
160.99999999999989
 21
138.49999999999989
 31
0.0
  0
LINE
  5
B31
  8
VZT-AIRCOMPONENTS-VENTILAT
 10
160.99999999999989
 20
138.49999999999989
 30
0.0
 11
-161.0
 21
138.5
 31
0.0
  0
LINE
  5
B32
  8
VZT-AIRCOMPONENTS-VENTILAT
 10
-161.0
 20
138.5
 30
0.0
 11
-160.99999999999989
 21
-138.50000000000011
 31
0.0
  0
LINE
  5
B33
  8
VZT-AIRCOMPONENTS-VENTILA0
 10
-128.50000000000011
 20
-0.0000000000001137
 30
0.0
 11
128.50000000000011
 21
0.0000000000001137
 31
0.0
  0
LINE
  5
B34
  8
VZT-AIRCOMPONENTS-VENTILA0
 10
0.0
 20
128.5
 30
0.0
 11
0.0
 21
-128.5000000000002
 31
0.0
  0
POLYLINE
  5
B35
  8
VZT-AIRCOMPONENTS-VENTILA2
 66
     1
 10
0.0
 20
0.0
 30
0.0
 70
     1
  0
VERTEX
  5
C5E
  8
VZT-AIRCOMPONENTS-VENTILA2
 10
-156.0
 20
-95.631442620745716
 30
0.0
  0
VERTEX
  5
C5F
  8
VZT-AIRCOMPONENTS-VENTILA2
 10
-62.522316581416362
 20
-95.631442620745716
 30
0.0
  0
VERTEX
  5
C60
  8
VZT-AIRCOMPONENTS-VENTILA2
 10
-62.522316581416362
 20
-133.5
 30
0.0
  0
VERTEX
  5
C61
  8
VZT-AIRCOMPONENTS-VENTILA2
 10
-156.0
 20
-133.5
 30
0.0
  0
SEQEND
  5
C62
  8
VZT-AIRCOMPONENTS-VENTILA2
  0
LINE
  5
B36
  8
VZT-AIRCOMPONENTS-VENTILA1
 10
-161.0
 20
128.5
 30
0.0
 11
161.0
 21
128.49999999999989
 31
0.0
  0
INSERT
  5
B37
  8
0
  2
*U17
 10
0.0
 20
0.0
 30
0.0
  0
CIRCLE
  5
B38
  8
VZT-AIRCOMPONENTS-VENTILAT
 10
0.0
 20
-0.0000000000001137
 30
0.0
 40
124.0000000000001
  0
CIRCLE
  5
B39
  8
VZT-AIRCOMPONENTS-VENTILAT
 10
0.0
 20
-0.0000000000001137
 30
0.0
 40
123.0000000000001
  0
ENDBLK
  5
B2E
  8
0
  0
BLOCK
  8
0
  2
MRV_250_-_POHLAD_ZHORA
 70
     0
 10
0.0
 20
0.0
 30
0.0
  3
MRV_250_-_POHLAD_ZHORA
  1

  0
LINE
  5
BA8
  8
VZT-AIRCOMPONENTS-VENTILAT
 10
40.0
 20
161.0
 30
0.0
 11
357.0
 21
161.0
 31
0.0
  0
LINE
  5
BA9
  8
VZT-AIRCOMPONENTS-VENTILAT
 10
40.0
 20
-161.0
 30
0.0
 11
357.0
 21
-161.0
 31
0.0
  0
LINE
  5
BAA
  8
VZT-AIRCOMPONENTS-VENTILAT
 10
40.0
 20
161.0
 30
0.0
 11
40.0
 21
-161.0
 31
0.0
  0
LINE
  5
BAB
  8
VZT-AIRCOMPONENTS-VENTILAT
 10
357.0
 20
161.0
 30
0.0
 11
357.0
 21
-161.0
 31
0.0
  0
POLYLINE
  5
BAC
  8
VZT-AIRCOMPONENTS-VENTILA2
 66
     1
 10
0.0
 20
0.0
 30
0.0
 70
     1
  0
VERTEX
  5
C6C
  8
VZT-AIRCOMPONENTS-VENTILA2
 10
55.0
 20
156.0
 30
0.0
  0
VERTEX
  5
C6D
  8
VZT-AIRCOMPONENTS-VENTILA2
 10
148.47768341858361
 20
156.0
 30
0.0
  0
VERTEX
  5
C6E
  8
VZT-AIRCOMPONENTS-VENTILA2
 10
148.47768341858361
 20
118.1314426207457
 30
0.0
  0
VERTEX
  5
C6F
  8
VZT-AIRCOMPONENTS-VENTILA2
 10
55.0
 20
118.1314426207457
 30
0.0
  0
SEQEND
  5
C70
  8
VZT-AIRCOMPONENTS-VENTILA2
  0
LINE
  5
BAD
  8
VZT-AIRCOMPONENTS-VENTILA1
 10
128.5
 20
-0.0000000000002274
 30
0.0
 11
233.5
 21
60.621778264910738
 31
0.0
  0
CIRCLE
  5
BAE
  8
VZT-AIRCOMPONENTS-VENTILA1
 10
198.5
 20
0.0
 30
0.0
 40
70.0
  0
LINE
  5
BAF
  8
VZT-AIRCOMPONENTS-VENTILA1
 10
128.5
 20
-0.0000000000002274
 30
0.0
 11
233.5
 21
-60.621778264910738
 31
0.0
  0
LINE
  5
BB0
  8
VZT-AIRCOMPONENTS-VENTILA1
 10
233.5
 20
60.621778264910738
 30
0.0
 11
233.5
 21
-60.621778264910738
 31
0.0
  0
CIRCLE
  5
BB1
  8
VZT-AIRCOMPONENTS-VENTILA1
 10
48.0
 20
-145.0
 30
0.0
 40
3.0
  0
CIRCLE
  5
BB2
  8
VZT-AIRCOMPONENTS-VENTILA1
 10
349.0
 20
-145.0
 30
0.0
 40
3.0
  0
CIRCLE
  5
BB3
  8
VZT-AIRCOMPONENTS-VENTILA1
 10
48.0
 20
145.0
 30
0.0
 40
3.0
  0
CIRCLE
  5
BB4
  8
VZT-AIRCOMPONENTS-VENTILA1
 10
349.0
 20
145.0
 30
0.0
 40
3.0
  0
LINE
  5
BB5
  8
VZT-AIRCOMPONENTS-VENTILA0
 10
357.0
 20
0.0
 30
0.0
 11
397.0
 21
0.0
 31
0.0
  0
LINE
  5
BB6
  8
VZT-AIRCOMPONENTS-VENTILAT
 10
357.0
 20
-124.0
 30
0.0
 11
397.0
 21
-124.0
 31
0.0
  0
LINE
  5
BB7
  8
VZT-AIRCOMPONENTS-VENTILAT
 10
357.0
 20
124.0
 30
0.0
 11
397.0
 21
124.0
 31
0.0
  0
LINE
  5
BB8
  8
VZT-AIRCOMPONENTS-VENTILAT
 10
397.0
 20
124.0
 30
0.0
 11
397.0
 21
-124.0
 31
0.0
  0
LINE
  5
BB9
  8
VZT-AIRCOMPONENTS-VENTILA0
 10
40.0
 20
0.0
 30
0.0
 11
0.0
 21
0.0
 31
0.0
  0
LINE
  5
BBA
  8
VZT-AIRCOMPONENTS-VENTILAT
 10
40.0
 20
-124.0
 30
0.0
 11
0.0
 21
-124.0
 31
0.0
  0
LINE
  5
BBB
  8
VZT-AIRCOMPONENTS-VENTILAT
 10
40.0
 20
124.0
 30
0.0
 11
0.0
 21
124.0
 31
0.0
  0
LINE
  5
BBC
  8
VZT-AIRCOMPONENTS-VENTILAT
 10
0.0
 20
124.0
 30
0.0
 11
0.0
 21
-124.0
 31
0.0
  0
INSERT
  5
BBD
  8
0
  2
*U18
 10
0.0
 20
0.0
 30
0.0
  0
ENDBLK
  5
B3D
  8
0
  0
BLOCK
  8
0
  2
*U9
 70
     1
 10
0.0
 20
0.0
 30
0.0
  3
*U9
  1

  0
TEXT
  5
C08
  8
VZT-AIRCOMPONENTS-VENTILA2
 10
568.75303812717755
 20
247.14991757539019
 30
0.0
 40
18.75
  1
MRV 250
  0
TEXT
  5
C09
  8
VZT-AIRCOMPONENTS-VENTILA2
 10
568.75303812717755
 20
225.39991757539019
 30
0.0
 40
10.5
  1
napätie     230V
  0
TEXT
  5
C0A
  8
VZT-AIRCOMPONENTS-VENTILA2
 10
568.75303812717755
 20
206.39991757539019
 30
0.0
 40
10.5
  1
Prikon      0.14KW
  0
TEXT
  5
C0B
  8
VZT-AIRCOMPONENTS-VENTILA2
 10
568.75303812717755
 20
187.39991757539011
 30
0.0
 40
10.5
  1
Prúd 0.59A
  0
TEXT
  5
C0C
  8
VZT-AIRCOMPONENTS-VENTILA2
 10
568.75303812717755
 20
168.39991757539019
 30
0.0
 40
10.5
  1
AIRcomponents Slovakia s.r.o.
  0
ENDBLK
  5
C0E
  8
0
  0
BLOCK
  8
0
  2
*U10
 70
     1
 10
0.0
 20
0.0
 30
0.0
  3
*U10
  1

  0
TEXT
  5
C15
  8
VZT-AIRCOMPONENTS-VENTILA2
 10
45.252643190405252
 20
360.15498953250949
 30
0.0000000000001137
 40
18.75
  1
Pohlad ZHORA
  0
ENDBLK
  5
C17
  8
0
  0
BLOCK
  8
0
  2
*U11
 70
     1
 10
0.0
 20
0.0
 30
0.0
  3
*U11
  1

  0
TEXT
  5
C19
  8
VZT-AIRCOMPONENTS-VENTILA2
 10
45.252643190405252
 20
800.36896685818658
 30
0.0000000000001137
 40
18.75
  1
Pohlad BOCNY
  0
ENDBLK
  5
C1B
  8
0
  0
BLOCK
  8
0
  2
*U12
 70
     1
 10
0.0
 20
0.0
 30
0.0
  3
*U12
  1

  0
TEXT
  5
C1D
  8
VZT-AIRCOMPONENTS-VENTILA2
 10
565.25264319040525
 20
800.36896685818658
 30
0.0000000000001137
 40
18.75
  1
Pohlad CELNY
  0
ENDBLK
  5
C1F
  8
0
  0
BLOCK
  8
0
  2
*U13
 70
     1
 10
0.0
 20
0.0
 30
0.0
  3
*U13
  1

  0
TEXT
  5
C21
  8
VZT-AIRCOMPONENTS-VENTILA2
 10
47.251013076588151
 20
90.549972915661556
 30
0.0
 40
6.25
  1
MRV 200
  0
TEXT
  5
C22
  8
VZT-AIRCOMPONENTS-VENTILA2
 10
47.251013076588151
 20
83.299972915661556
 30
0.0
 40
3.5
  1
napätie     230V
  0
TEXT
  5
C23
  8
VZT-AIRCOMPONENTS-VENTILA2
 10
47.251013076588151
 20
76.966639582328213
 30
0.0
 40
3.5
  1
Prikon      0.1KW
  0
TEXT
  5
C24
  8
VZT-AIRCOMPONENTS-VENTILA2
 10
47.251013076588151
 20
70.633306248994899
 30
0.0
 40
3.5
  1
Prúd 0.45A
  0
TEXT
  5
C25
  8
VZT-AIRCOMPONENTS-VENTILA2
 10
47.251013076588151
 20
64.29997291566157
 30
0.0
 40
3.5
  1
AIRcomponents Slovakia s.r.o.
  0
ENDBLK
  5
C27
  8
0
  0
BLOCK
  8
0
  2
*U14
 70
     1
 10
0.0
 20
0.0
 30
0.0
  3
*U14
  1

  0
TEXT
  5
C38
  8
VZT-AIRCOMPONENTS-VENTILA2
 10
-128.74898692341179
 20
-80.581469705084146
 30
0.0
 40
6.25
  1
MRV 200
  0
TEXT
  5
C39
  8
VZT-AIRCOMPONENTS-VENTILA2
 10
-128.74898692341179
 20
-87.831469705084146
 30
0.0
 40
3.5
  1
napätie     230V
  0
TEXT
  5
C3A
  8
VZT-AIRCOMPONENTS-VENTILA2
 10
-128.74898692341179
 20
-94.164803038417475
 30
0.0
 40
3.5
  1
Prikon      0.1KW
  0
TEXT
  5
C3B
  8
VZT-AIRCOMPONENTS-VENTILA2
 10
-128.74898692341179
 20
-100.4981363717508
 30
0.0
 40
3.5
  1
Prúd 0.45A
  0
TEXT
  5
C3C
  8
VZT-AIRCOMPONENTS-VENTILA2
 10
-128.74898692341179
 20
-106.8314697050841
 30
0.0
 40
3.5
  1
AIRcomponents Slovakia s.r.o.
  0
ENDBLK
  5
C3E
  8
0
  0
BLOCK
  8
0
  2
*U15
 70
     1
 10
0.0
 20
0.0
 30
0.0
  3
*U15
  1

  0
TEXT
  5
C45
  8
VZT-AIRCOMPONENTS-VENTILA2
 10
57.251013076588151
 20
123.0499729156615
 30
0.0
 40
6.25
  1
MRV 200
  0
TEXT
  5
C46
  8
VZT-AIRCOMPONENTS-VENTILA2
 10
57.251013076588151
 20
115.7999729156615
 30
0.0
 40
3.5
  1
napätie     230V
  0
TEXT
  5
C47
  8
VZT-AIRCOMPONENTS-VENTILA2
 10
57.251013076588151
 20
109.4666395823282
 30
0.0
 40
3.5
  1
Prikon      0.1KW
  0
TEXT
  5
C48
  8
VZT-AIRCOMPONENTS-VENTILA2
 10
57.251013076588151
 20
103.1333062489949
 30
0.0
 40
3.5
  1
Prúd 0.45A
  0
TEXT
  5
C49
  8
VZT-AIRCOMPONENTS-VENTILA2
 10
57.251013076588151
 20
96.799972915661584
 30
0.0
 40
3.5
  1
AIRcomponents Slovakia s.r.o.
  0
ENDBLK
  5
C4B
  8
0
  0
BLOCK
  8
0
  2
*U16
 70
     1
 10
0.0
 20
0.0
 30
0.0
  3
*U16
  1

  0
TEXT
  5
C51
  8
VZT-AIRCOMPONENTS-VENTILA2
 10
48.251013076588151
 20
114.5499729156615
 30
0.0
 40
6.25
  1
MRV 250
  0
TEXT
  5
C52
  8
VZT-AIRCOMPONENTS-VENTILA2
 10
48.251013076588151
 20
107.2999729156615
 30
0.0
 40
3.5
  1
napätie     230V
  0
TEXT
  5
C53
  8
VZT-AIRCOMPONENTS-VENTILA2
 10
48.251013076588151
 20
100.9666395823282
 30
0.0
 40
3.5
  1
Prikon      0.14KW
  0
TEXT
  5
C54
  8
VZT-AIRCOMPONENTS-VENTILA2
 10
48.251013076588151
 20
94.633306248994884
 30
0.0
 40
3.5
  1
Prúd 0.59A
  0
TEXT
  5
C55
  8
VZT-AIRCOMPONENTS-VENTILA2
 10
48.251013076588151
 20
88.299972915661556
 30
0.0
 40
3.5
  1
AIRcomponents Slovakia s.r.o.
  0
ENDBLK
  5
C57
  8
0
  0
BLOCK
  8
0
  2
*U17
 70
     1
 10
0.0
 20
0.0
 30
0.0
  3
*U17
  1

  0
TEXT
  5
C64
  8
VZT-AIRCOMPONENTS-VENTILA2
 10
-152.74898692341179
 20
-104.5814697050841
 30
0.0
 40
6.25
  1
MRV 250
  0
TEXT
  5
C65
  8
VZT-AIRCOMPONENTS-VENTILA2
 10
-152.74898692341179
 20
-111.8314697050841
 30
0.0
 40
3.5
  1
napätie     230V
  0
TEXT
  5
C66
  8
VZT-AIRCOMPONENTS-VENTILA2
 10
-152.74898692341179
 20
-118.1648030384174
 30
0.0
 40
3.5
  1
Prikon      0.14KW
  0
TEXT
  5
C67
  8
VZT-AIRCOMPONENTS-VENTILA2
 10
-152.74898692341179
 20
-124.4981363717508
 30
0.0
 40
3.5
  1
Prúd 0.59A
  0
TEXT
  5
C68
  8
VZT-AIRCOMPONENTS-VENTILA2
 10
-152.74898692341179
 20
-130.83146970508409
 30
0.0
 40
3.5
  1
AIRcomponents Slovakia s.r.o.
  0
ENDBLK
  5
C6A
  8
0
  0
BLOCK
  8
0
  2
*U18
 70
     1
 10
0.0
 20
0.0
 30
0.0
  3
*U18
  1

  0
TEXT
  5
C72
  8
VZT-AIRCOMPONENTS-VENTILA2
 10
58.251013076588151
 20
147.0499729156615
 30
0.0
 40
6.25
  1
MRV 250
  0
TEXT
  5
C73
  8
VZT-AIRCOMPONENTS-VENTILA2
 10
58.251013076588151
 20
139.7999729156615
 30
0.0
 40
3.5
  1
napätie     230V
  0
TEXT
  5
C74
  8
VZT-AIRCOMPONENTS-VENTILA2
 10
58.251013076588151
 20
133.46663958232821
 30
0.0
 40
3.5
  1
Prikon      0.14KW
  0
TEXT
  5
C75
  8
VZT-AIRCOMPONENTS-VENTILA2
 10
58.251013076588151
 20
127.1333062489949
 30
0.0
 40
3.5
  1
Prúd 0.59A
  0
TEXT
  5
C76
  8
VZT-AIRCOMPONENTS-VENTILA2
 10
58.251013076588151
 20
120.7999729156615
 30
0.0
 40
3.5
  1
AIRcomponents Slovakia s.r.o.
  0
ENDBLK
  5
C78
  8
0
  0
ENDSEC
  0
SECTION
  2
ENTITIES
  0
INSERT
  5
1DD
  8
0
  2
*U9
 10
0.0
 20
0.0
 30
0.0
  0
POLYLINE
  5
1DE
  8
VZT-AIRCOMPONENTS-VENTILA2
 66
     1
 10
0.0
 20
0.0
 30
0.0
 70
     1
  0
VERTEX
  5
C0F
  8
VZT-AIRCOMPONENTS-VENTILA2
 10
558.99999889741321
 20
273.99999882840552
 30
0.0
  0
VERTEX
  5
C10
  8
VZT-AIRCOMPONENTS-VENTILA2
 10
839.43304915316423
 20
273.99999882840552
 30
0.0
  0
VERTEX
  5
C11
  8
VZT-AIRCOMPONENTS-VENTILA2
 10
839.43304915316423
 20
160.3943266906426
 30
0.0
  0
VERTEX
  5
C12
  8
VZT-AIRCOMPONENTS-VENTILA2
 10
558.99999889741321
 20
160.3943266906426
 30
0.0
  0
SEQEND
  5
C13
  8
VZT-AIRCOMPONENTS-VENTILA2
  0
INSERT
  5
40C
  8
0
  2
*U10
 10
0.0
 20
0.0
 30
0.0
  0
INSERT
  5
45D
  8
0
  2
*U11
 10
0.0
 20
0.0
 30
0.0
  0
INSERT
  5
47E
  8
0
  2
*U12
 10
0.0
 20
0.0
 30
0.0
  0
INSERT
  5
B2B
  8
0
  2
MRV_250_-_POHLAD_BOCNY
 10
-1.000001102586793
 20
638.49999882840552
 30
0.0
  0
INSERT
  5
B3A
  8
0
  2
MRV_250_-_POHLAD_CELNY
 10
695.99999889741321
 20
638.49999882840552
 30
0.0
  0
INSERT
  5
BCE
  8
0
  2
MRV_250_-_POHLAD_ZHORA
 10
-1.000001102586793
 20
175.78602150272829
 30
0.0
  0
ENDSEC
  0
EOF
