  0
SECTION
  2
HEADER
  9
$ACADVER
  1
AC1009
  9
$INSBASE
 10
0.0
 20
0.0
 30
0.0
  9
$EXTMIN
 10
1074.965885124444
 20
812.11807924809398
 30
0.0
  9
$EXTMAX
 10
1269.1188609657199
 20
1108.592585189082
 30
0.0
  9
$LIMMIN
 10
0.0
 20
0.0
  9
$LIMMAX
 10
420.0
 20
297.0
  9
$ORTHOMODE
 70
     1
  9
$REGENMODE
 70
     1
  9
$FILLMODE
 70
     1
  9
$QTEXTMODE
 70
     0
  9
$MIRRTEXT
 70
     0
  9
$DRAGMODE
 70
     2
  9
$LTSCALE
 40
1.0
  9
$OSMODE
 70
    39
  9
$ATTMODE
 70
     1
  9
$TEXTSIZE
 40
2.5
  9
$TRACEWID
 40
1.0
  9
$TEXTSTYLE
  7
STANDARD
  9
$CLAYER
  8
0
  9
$CELTYPE
  6
BYLAYER
  9
$CECOLOR
 62
   256
  9
$DIMSCALE
 40
1.0
  9
$DIMASZ
 40
2.5
  9
$DIMEXO
 40
0.625
  9
$DIMDLI
 40
3.75
  9
$DIMRND
 40
0.0
  9
$DIMDLE
 40
0.0
  9
$DIMEXE
 40
1.25
  9
$DIMTP
 40
0.0
  9
$DIMTM
 40
0.0
  9
$DIMTXT
 40
2.5
  9
$DIMCEN
 40
2.5
  9
$DIMTSZ
 40
0.0
  9
$DIMTOL
 70
     0
  9
$DIMLIM
 70
     0
  9
$DIMTIH
 70
     0
  9
$DIMTOH
 70
     0
  9
$DIMSE1
 70
     0
  9
$DIMSE2
 70
     0
  9
$DIMTAD
 70
     1
  9
$DIMZIN
 70
     8
  9
$DIMBLK
  1

  9
$DIMASO
 70
     1
  9
$DIMSHO
 70
     1
  9
$DIMPOST
  1

  9
$DIMAPOST
  1

  9
$DIMALT
 70
     0
  9
$DIMALTD
 70
     3
  9
$DIMALTF
 40
0.03937007874016
  9
$DIMLFAC
 40
1.0
  9
$DIMTOFL
 70
     1
  9
$DIMTVP
 40
0.0
  9
$DIMTIX
 70
     0
  9
$DIMSOXD
 70
     0
  9
$DIMSAH
 70
     0
  9
$DIMBLK1
  1

  9
$DIMBLK2
  1

  9
$DIMSTYLE
  2
ISO-25
  9
$DIMCLRD
 70
     0
  9
$DIMCLRE
 70
     0
  9
$DIMCLRT
 70
     0
  9
$DIMTFAC
 40
1.0
  9
$DIMGAP
 40
0.625
  9
$LUNITS
 70
     2
  9
$LUPREC
 70
     4
  9
$SKETCHINC
 40
1.0
  9
$FILLETRAD
 40
0.0
  9
$AUNITS
 70
     0
  9
$AUPREC
 70
     0
  9
$MENU
  1
.
  9
$ELEVATION
 40
0.0
  9
$PELEVATION
 40
0.0
  9
$THICKNESS
 40
0.0
  9
$LIMCHECK
 70
     0
  9
$BLIPMODE
 70
     0
  9
$CHAMFERA
 40
0.0
  9
$CHAMFERB
 40
0.0
  9
$SKPOLY
 70
     0
  9
$TDCREATE
 40
2456729.094367581
  9
$TDUPDATE
 40
2456729.1009584721
  9
$TDINDWG
 40
0.00659125
  9
$TDUSRTIMER
 40
0.00659125
  9
$USRTIMER
 70
     1
  9
$ANGBASE
 50
0.0
  9
$ANGDIR
 70
     0
  9
$PDMODE
 70
     0
  9
$PDSIZE
 40
0.0
  9
$PLINEWID
 40
0.0
  9
$COORDS
 70
     1
  9
$SPLFRAME
 70
     0
  9
$SPLINETYPE
 70
     6
  9
$SPLINESEGS
 70
     8
  9
$ATTDIA
 70
     0
  9
$ATTREQ
 70
     1
  9
$HANDLING
 70
     1
  9
$HANDSEED
  5
519
  9
$SURFTAB1
 70
     6
  9
$SURFTAB2
 70
     6
  9
$SURFTYPE
 70
     6
  9
$SURFU
 70
     6
  9
$SURFV
 70
     6
  9
$UCSNAME
  2

  9
$UCSORG
 10
0.0
 20
0.0
 30
0.0
  9
$UCSXDIR
 10
1.0
 20
0.0
 30
0.0
  9
$UCSYDIR
 10
0.0
 20
1.0
 30
0.0
  9
$PUCSNAME
  2

  9
$PUCSORG
 10
0.0
 20
0.0
 30
0.0
  9
$PUCSXDIR
 10
1.0
 20
0.0
 30
0.0
  9
$PUCSYDIR
 10
0.0
 20
1.0
 30
0.0
  9
$USERI1
 70
     0
  9
$USERI2
 70
     0
  9
$USERI3
 70
     0
  9
$USERI4
 70
     0
  9
$USERI5
 70
     0
  9
$USERR1
 40
0.0
  9
$USERR2
 40
0.0
  9
$USERR3
 40
0.0
  9
$USERR4
 40
0.0
  9
$USERR5
 40
0.0
  9
$WORLDVIEW
 70
     1
  9
$SHADEDGE
 70
     3
  9
$SHADEDIF
 70
    70
  9
$TILEMODE
 70
     1
  9
$MAXACTVP
 70
    64
  9
$PLIMCHECK
 70
     0
  9
$PEXTMIN
 10
0.0
 20
0.0
 30
0.0
  9
$PEXTMAX
 10
0.0
 20
0.0
 30
0.0
  9
$PLIMMIN
 10
0.0
 20
0.0
  9
$PLIMMAX
 10
12.0
 20
9.0
  9
$UNITMODE
 70
     0
  9
$VISRETAIN
 70
     1
  9
$PLINEGEN
 70
     0
  9
$PSLTSCALE
 70
     1
  0
ENDSEC
  0
SECTION
  2
TABLES
  0
TABLE
  2
VPORT
 70
     1
  0
VPORT
  2
*ACTIVE
 70
     0
 10
0.0
 20
0.0
 11
1.0
 21
1.0
 12
1257.130333226982
 22
1032.74662947507
 13
0.0
 23
0.0
 14
10.0
 24
10.0
 15
10.0
 25
10.0
 16
0.0
 26
0.0
 36
1.0
 17
0.0
 27
0.0
 37
0.0
 40
218.24191706694461
 41
1.9925133689839569
 42
50.0
 43
0.0
 44
0.0
 50
0.0
 51
0.0
 71
     0
 72
  1000
 73
     1
 74
     3
 75
     0
 76
     0
 77
     0
 78
     0
  0
ENDTAB
  0
TABLE
  2
LTYPE
 70
     3
  0
LTYPE
  2
CONTINUOUS
 70
     0
  3
Solid line
 72
    65
 73
     0
 40
0.0
  0
LTYPE
  2
HIDDEN
 70
     0
  3
Hidden __ __ __ __ __ __ __ __ __ __ __ __ __ _
 72
    65
 73
     2
 40
9.5249999999999986
 49
6.3499999999999988
 49
-3.1749999999999989
  0
ENDTAB
  0
TABLE
  2
LAYER
 70
     6
  0
LAYER
  2
0
 70
     0
 62
     7
  6
CONTINUOUS
  0
LAYER
  2
AIRCOMPONENTS_-_ELEKTRO
 70
     0
 62
     6
  6
CONTINUOUS
  0
ENDTAB
  0
TABLE
  2
STYLE
 70
     1
  0
STYLE
  2
STANDARD
 70
     0
 40
0.0
 41
1.0
 50
0.0
 71
     0
 42
2.5
  3
txt
  4

  0
ENDTAB
  0
TABLE
  2
VIEW
 70
     0
  0
ENDTAB
  0
TABLE
  2
UCS
 70
     0
  0
ENDTAB
  0
TABLE
  2
APPID
 70
     3
  0
APPID
  2
ACAD
 70
     0
  0
APPID
  2
ACAD_PSEXT
 70
     0
  0
APPID
  2
ACAECLAYERSTANDARD
 70
     0
  0
ENDTAB
  0
TABLE
  2
DIMSTYLE
 70
     1
  0
DIMSTYLE
  2
ISO-25
 70
     0
  3

  4

  5

  6

  7

 40
1.0
 41
2.5
 42
0.625
 43
3.75
 44
1.25
 45
0.0
 46
0.0
 47
0.0
 48
0.0
140
2.5
141
2.5
142
0.0
143
0.03937007874016
144
1.0
145
0.0
146
1.0
147
0.625
 71
     0
 72
     0
 73
     0
 74
     0
 75
     0
 76
     0
 77
     1
 78
     8
170
     0
171
     3
172
     1
173
     0
174
     0
175
     0
176
     0
177
     0
178
     0
  0
ENDTAB
  0
ENDSEC
  0
SECTION
  2
BLOCKS
  0
BLOCK
  8
0
  2
$MODEL_SPACE
 70
     0
 10
0.0
 20
0.0
 30
0.0
  3
$MODEL_SPACE
  1

  0
ENDBLK
  5
21
  8
0
  0
BLOCK
 67
     1
  8
0
  2
$PAPER_SPACE
 70
     0
 10
0.0
 20
0.0
 30
0.0
  3
$PAPER_SPACE
  1

  0
ENDBLK
  5
D5
 67
     1
  8
0
  0
BLOCK
  8
0
  2
*U2
 70
     1
 10
0.0
 20
0.0
 30
0.0
  3
*U2
  1

  0
TEXT
  5
3B9
  8
0
 10
18.537572931431761
 20
171.8133584697166
 30
0.0
 40
4.0
  1
PE
  0
ENDBLK
  5
3BB
  8
0
  0
BLOCK
  8
0
  2
*U3
 70
     1
 10
0.0
 20
0.0
 30
0.0
  3
*U3
  1

  0
TEXT
  5
3BD
  8
0
 10
41.130751649029207
 20
171.8051729308344
 30
0.0
 40
4.0
  1
L1
  0
ENDBLK
  5
3BF
  8
0
  0
BLOCK
  8
0
  2
*U4
 70
     1
 10
0.0
 20
0.0
 30
0.0
  3
*U4
  1

  0
TEXT
  5
3C1
  8
0
 10
48.852989029656051
 20
171.81335846971481
 30
0.0
 40
4.0
  1
L2/N
  0
ENDBLK
  5
3C3
  8
0
  0
BLOCK
  8
0
  2
*U5
 70
     1
 10
0.0
 20
0.0
 30
0.0
  3
*U5
  1

  0
TEXT
  5
3C5
  8
0
 10
62.344667065125982
 20
171.84064359931821
 30
0.0
 40
4.0
  1
L3
  0
ENDBLK
  5
3C7
  8
0
  0
BLOCK
  8
0
  2
*U6
 70
     1
 10
0.0
 20
0.0
 30
0.0
  3
*U6
  1

  0
TEXT
  5
3C9
  8
0
 10
104.9174721646
 20
171.84746488172021
 30
0.0
 40
4.0
  1
U
  0
ENDBLK
  5
3CB
  8
0
  0
BLOCK
  8
0
  2
*U7
 70
     1
 10
0.0
 20
0.0
 30
0.0
  3
*U7
  1

  0
TEXT
  5
3CD
  8
0
 10
115.8757259163046
 20
171.8133584697139
 30
0.0
 40
4.0
  1
V
  0
ENDBLK
  5
3CF
  8
0
  0
BLOCK
  8
0
  2
*U8
 70
     1
 10
0.0
 20
0.0
 30
0.0
  3
*U8
  1

  0
TEXT
  5
3D1
  8
0
 10
125.8899141836982
 20
171.81335846971291
 30
0.0
 40
4.0
  1
W
  0
ENDBLK
  5
3D3
  8
0
  0
BLOCK
  8
0
  2
*U9
 70
     1
 10
0.0
 20
0.0
 30
0.0
  3
*U9
  1

  0
TEXT
  5
3D5
  8
0
 10
41.209273862037797
 20
179.3302773002996
 30
0.0
 40
4.0
  1
Mains
  0
ENDBLK
  5
3D7
  8
0
  0
BLOCK
  8
0
  2
*U10
 70
     1
 10
0.0
 20
0.0
 30
0.0
  3
*U10
  1

  0
TEXT
  5
3D9
  8
0
 10
105.7406645247612
 20
179.33027730029869
 30
0.0
 40
4.0
  1
Motor out
  0
ENDBLK
  5
3DB
  8
0
  0
BLOCK
  8
0
  2
*U11
 70
     1
 10
0.0
 20
0.0
 30
0.0
  3
*U11
  1

  0
TEXT
  5
3DD
  8
0
 10
46.200881568725073
 20
194.2815733978484
 30
0.0
 40
4.0
  1
Fre. menič VACON 10, M13
  0
TEXT
  5
3DE
  8
0
 10
26.734305852490429
 20
187.5439653942104
 30
0.0
 40
4.0
  1
VACON0010-1L-0009-2, 2,2kW, 230 / 400V
  0
ENDBLK
  5
3E0
  8
0
  0
BLOCK
  8
0
  2
*U12
 70
     1
 10
0.0
 20
0.0
 30
0.0
  3
*U12
  1

  0
TEXT
  5
3E2
  8
0
 10
17.65262061030694
 20
266.42228923776997
 30
0.0
 40
3.0
  1
1
  0
ENDBLK
  5
3E4
  8
0
  0
BLOCK
  8
0
  2
*U13
 70
     1
 10
0.0
 20
0.0
 30
0.0
  3
*U13
  1

  0
TEXT
  5
3E6
  8
0
 10
28.345185412485389
 20
266.42228923776997
 30
0.0
 40
3.0
  1
2
  0
ENDBLK
  5
3E8
  8
0
  0
BLOCK
  8
0
  2
*U14
 70
     1
 10
0.0
 20
0.0
 30
0.0
  3
*U14
  1

  0
TEXT
  5
3EA
  8
0
 10
39.103234525714313
 20
266.44889223913418
 30
0.0
 40
3.0
  1
3
  0
ENDBLK
  5
3EC
  8
0
  0
BLOCK
  8
0
  2
*U15
 70
     1
 10
0.0
 20
0.0
 30
0.0
  3
*U15
  1

  0
TEXT
  5
3EE
  8
0
 10
49.913466449311592
 20
266.44786904677409
 30
0.0
 40
3.0
  1
6
  0
ENDBLK
  5
3F0
  8
0
  0
BLOCK
  8
0
  2
*U16
 70
     1
 10
0.0
 20
0.0
 30
0.0
  3
*U16
  1

  0
TEXT
  5
3F2
  8
0
 10
60.69197940974378
 20
266.42842839193099
 30
0.0
 40
3.0
  1
7
  0
ENDBLK
  5
3F4
  8
0
  0
BLOCK
  8
0
  2
*U17
 70
     1
 10
0.0
 20
0.0
 30
0.0
  3
*U17
  1

  0
TEXT
  5
3F6
  8
0
 10
71.503234525701217
 20
266.44786904677409
 30
0.0
 40
3.0
  1
8
  0
ENDBLK
  5
3F8
  8
0
  0
BLOCK
  8
0
  2
*U18
 70
     1
 10
0.0
 20
0.0
 30
0.0
  3
*U18
  1

  0
TEXT
  5
3FA
  8
0
 10
82.301188140976521
 20
266.44786904677409
 30
0.0
 40
3.0
  1
9
  0
ENDBLK
  5
3FC
  8
0
  0
BLOCK
  8
0
  2
*U19
 70
     1
 10
0.0
 20
0.0
 30
0.0
  3
*U19
  1

  0
TEXT
  5
3FE
  8
0
 10
91.802757035924415
 20
266.44786904677409
 30
0.0
 40
3.0
  1
10
  0
ENDBLK
  5
400
  8
0
  0
BLOCK
  8
0
  2
*U20
 70
     1
 10
0.0
 20
0.0
 30
0.0
  3
*U20
  1

  0
TEXT
  5
402
  8
0
 10
22.893002602119221
 20
278.09553283281258
 30
0.0
 40
3.0
  1
5
  0
ENDBLK
  5
404
  8
0
  0
BLOCK
  8
0
  2
*U21
 70
     1
 10
0.0
 20
0.0
 30
0.0
  3
*U21
  1

  0
TEXT
  5
406
  8
0
 10
12.17076522149603
 20
278.06995302380852
 30
0.0
 40
3.0
  1
4
  0
ENDBLK
  5
408
  8
0
  0
BLOCK
  8
0
  2
*U22
 70
     1
 10
0.0
 20
0.0
 30
0.0
  3
*U22
  1

  0
TEXT
  5
40A
  8
0
 10
32.3976410741476
 20
278.09041687101171
 30
0.0
 40
3.0
  1
13
  0
ENDBLK
  5
40C
  8
0
  0
BLOCK
  8
0
  2
*U23
 70
     1
 10
0.0
 20
0.0
 30
0.0
  3
*U23
  1

  0
TEXT
  5
40E
  8
0
 10
43.203780228304211
 20
278.06381386964739
 30
0.0
 40
3.0
  1
14
  0
ENDBLK
  5
410
  8
0
  0
BLOCK
  8
0
  2
*U24
 70
     1
 10
0.0
 20
0.0
 30
0.0
  3
*U24
  1

  0
TEXT
  5
412
  8
0
 10
53.986385958177067
 20
278.08939367865162
 30
0.0
 40
3.0
  1
15
  0
ENDBLK
  5
414
  8
0
  0
BLOCK
  8
0
  2
*U25
 70
     1
 10
0.0
 20
0.0
 30
0.0
  3
*U25
  1

  0
TEXT
  5
416
  8
0
 10
64.798664266494654
 20
278.08939367865162
 30
0.0
 40
3.0
  1
16
  0
ENDBLK
  5
418
  8
0
  0
BLOCK
  8
0
  2
*U26
 70
     1
 10
0.0
 20
0.0
 30
0.0
  3
*U26
  1

  0
TEXT
  5
41A
  8
0
 10
75.594571497049643
 20
278.08939367865162
 30
0.0
 40
3.0
  1
18
  0
ENDBLK
  5
41C
  8
0
  0
BLOCK
  8
0
  2
*U27
 70
     1
 10
0.0
 20
0.0
 30
0.0
  3
*U27
  1

  0
TEXT
  5
41E
  8
0
 10
86.569537390633272
 20
278.08939367865162
 30
0.0
 40
3.0
  1
20
  0
ENDBLK
  5
420
  8
0
  0
BLOCK
  8
0
  2
*U28
 70
     1
 10
0.0
 20
0.0
 30
0.0
  3
*U28
  1

  0
TEXT
  5
422
  8
0
 10
74.395475089286151
 20
231.85551997448829
 30
0.0
 40
2.5
  1
DI1 Start forward
  0
ENDBLK
  5
424
  8
0
  0
BLOCK
  8
0
  2
*U29
 70
     1
 10
0.0
 20
0.0
 30
0.0
  3
*U29
  1

  0
TEXT
  5
426
  8
0
 10
52.025954969938688
 20
226.54015198786709
 30
0.0
 40
2.5
  1
24V out
  0
ENDBLK
  5
428
  8
0
  0
BLOCK
  8
0
  2
*U30
 70
     1
 10
0.0
 20
0.0
 30
0.0
  3
*U30
  1

  0
TEXT
  5
42A
  8
0
 10
29.881289076509479
 20
212.9018401245587
 30
0.0
 40
2.5
  1
AI1, Analog signal in
  0
ENDBLK
  5
42C
  8
0
  0
BLOCK
  8
0
  2
*U31
 70
     1
 10
0.0
 20
0.0
 30
0.0
  3
*U31
  1

  0
TEXT
  5
42E
  8
0
 10
41.070587976832869
 20
219.27779380657881
 30
0.0
 40
2.5
  1
GND
  0
ENDBLK
  5
430
  8
0
  0
BLOCK
  8
0
  2
*U32
 70
     1
 10
0.0
 20
0.0
 30
0.0
  3
*U32
  1

  0
TEXT
  5
432
  8
0
 10
67.326222517621986
 20
288.71351353370568
 30
0.0
 40
5.0
  1
FR-1
  0
ENDBLK
  5
434
  8
0
  0
BLOCK
  8
0
  2
*U33
 70
     1
 10
0.0
 20
0.0
 30
0.0
  3
*U33
  1

  0
TEXT
  5
436
  8
0
 10
102.3728105017226
 20
278.06381386964739
 30
0.0
 40
3.0
  1
22
  0
ENDBLK
  5
438
  8
0
  0
BLOCK
  8
0
  2
*U34
 70
     1
 10
0.0
 20
0.0
 30
0.0
  3
*U34
  1

  0
TEXT
  5
43A
  8
0
 10
113.1574626163158
 20
278.09041687101171
 30
0.0
 40
3.0
  1
23
  0
ENDBLK
  5
43C
  8
0
  0
BLOCK
  8
0
  2
*U35
 70
     1
 10
0.0
 20
0.0
 30
0.0
  3
*U35
  1

  0
TEXT
  5
43E
  8
0
 10
119.4148978141308
 20
266.42842839193099
 30
0.0
 40
3.0
  1
B
  0
ENDBLK
  5
440
  8
0
  0
BLOCK
  8
0
  2
*U36
 70
     1
 10
0.0
 20
0.0
 30
0.0
  3
*U36
  1

  0
TEXT
  5
442
  8
0
 10
108.6568487009018
 20
266.42842839193099
 30
0.0
 40
3.0
  1
A
  0
ENDBLK
  5
444
  8
0
  0
BLOCK
  8
0
  2
*U37
 70
     1
 10
0.0
 20
0.0
 30
0.0
  3
*U37
  1

  0
TEXT
  5
446
  8
0
 10
128.96585168920589
 20
278.06381386964739
 30
0.0
 40
3.0
  1
22
  0
ENDBLK
  5
448
  8
0
  0
BLOCK
  8
0
  2
*U38
 70
     1
 10
0.0
 20
0.0
 30
0.0
  3
*U38
  1

  0
TEXT
  5
44A
  8
0
 10
139.75050380379909
 20
278.09041687101171
 30
0.0
 40
3.0
  1
23
  0
ENDBLK
  5
44C
  8
0
  0
BLOCK
  8
0
  2
*U39
 70
     1
 10
0.0
 20
0.0
 30
0.0
  3
*U39
  1

  0
TEXT
  5
44E
  8
0
 10
146.00793900161409
 20
266.42842839193099
 30
0.0
 40
3.0
  1
B
  0
ENDBLK
  5
450
  8
0
  0
BLOCK
  8
0
  2
*U40
 70
     1
 10
0.0
 20
0.0
 30
0.0
  3
*U40
  1

  0
TEXT
  5
452
  8
0
 10
135.2498898883851
 20
266.42842839193099
 30
0.0
 40
3.0
  1
A
  0
ENDBLK
  5
454
  8
0
  0
BLOCK
  8
0
  2
*U41
 70
     1
 10
0.0
 20
0.0
 30
0.0
  3
*U41
  1

  0
TEXT
  5
456
  8
0
 10
171.07306547629571
 20
216.90293387914619
 30
0.0
 40
3.0
  1
G0, AIC
  0
ENDBLK
  5
458
  8
0
  0
BLOCK
  8
0
  2
*U42
 70
     1
 10
0.0
 20
0.0
 30
0.0
  3
*U42
  1

  0
TEXT
  5
45A
  8
0
 10
171.41071895514969
 20
210.61212663576791
 30
0.0
 40
3.0
  1
Y1, AIC
  0
ENDBLK
  5
45C
  8
0
  0
BLOCK
  8
0
  2
*U43
 70
     1
 10
0.0
 20
0.0
 30
0.0
  3
*U43
  1

  0
TEXT
  5
45E
  8
0
 10
82.260190777797817
 20
244.4507611393945
 30
0.0
 40
2.5
  1
DI2
 50
90.0
  0
TEXT
  5
45F
  8
0
 10
86.469490459471317
 20
237.2091172103359
 30
0.0
 40
2.5
  1
Start reverse
 50
90.0
  0
ENDBLK
  5
461
  8
0
  0
BLOCK
  8
0
  2
*U44
 70
     1
 10
0.0
 20
0.0
 30
0.0
  3
*U44
  1

  0
TEXT
  5
463
  8
0
 10
19.565308195572971
 20
226.6105462581022
 30
0.0
 40
2.5
  1
+10V ref.volage  out
 50
90.0
  0
ENDBLK
  5
465
  8
0
  0
BLOCK
  8
0
  2
*U45
 70
     1
 10
0.0
 20
0.0
 30
0.0
  3
*U45
  1

  0
TEXT
  5
46C
  8
0
 10
170.24223327984461
 20
224.32316039144391
 30
0.0
 40
3.0
  1
V41, AIC
  0
ENDBLK
  5
46E
  8
0
  0
BLOCK
  8
0
  2
*U46
 70
     1
 10
0.0
 20
0.0
 30
0.0
  3
*U46
  1

  0
TEXT
  5
470
  8
0
 10
170.24223327984461
 20
229.48454836590659
 30
0.0
 40
3.0
  1
V44, AIC
  0
ENDBLK
  5
472
  8
0
  0
BLOCK
  8
0
  2
*U47
 70
     1
 10
0.0
 20
0.0
 30
0.0
  3
*U47
  1

  0
TEXT
  5
474
  8
AIRCOMPONENTS_-_ELEKTRO
 62
     7
 10
1093.502093799395
 20
984.53300181254917
 30
0.0
 40
4.0
  1
PE
  0
ENDBLK
  5
476
  8
0
  0
BLOCK
  8
0
  2
*U48
 70
     1
 10
0.0
 20
0.0
 30
0.0
  3
*U48
  1

  0
TEXT
  5
478
  8
AIRCOMPONENTS_-_ELEKTRO
 62
     7
 10
1116.0843584651509
 20
984.52345201718674
 30
0.0
 40
4.0
  1
L1
  0
ENDBLK
  5
47A
  8
0
  0
BLOCK
  8
0
  2
*U49
 70
     1
 10
0.0
 20
0.0
 30
0.0
  3
*U49
  1

  0
TEXT
  5
47C
  8
AIRCOMPONENTS_-_ELEKTRO
 62
     7
 10
1123.807960102258
 20
984.59030058471637
 30
0.0
 40
4.0
  1
L2/N
  0
ENDBLK
  5
47E
  8
0
  0
BLOCK
  8
0
  2
*U50
 70
     1
 10
0.0
 20
0.0
 30
0.0
  3
*U50
  1

  0
TEXT
  5
480
  8
AIRCOMPONENTS_-_ELEKTRO
 62
     7
 10
1137.298273881248
 20
984.55755842919029
 30
0.0
 40
4.0
  1
L3
  0
ENDBLK
  5
482
  8
0
  0
BLOCK
  8
0
  2
*U51
 70
     1
 10
0.0
 20
0.0
 30
0.0
  3
*U51
  1

  0
TEXT
  5
484
  8
AIRCOMPONENTS_-_ELEKTRO
 62
     7
 10
1179.8806287760831
 20
984.56710822455284
 30
0.0
 40
4.0
  1
U
  0
ENDBLK
  5
486
  8
0
  0
BLOCK
  8
0
  2
*U52
 70
     1
 10
0.0
 20
0.0
 30
0.0
  3
*U52
  1

  0
TEXT
  5
488
  8
AIRCOMPONENTS_-_ELEKTRO
 62
     7
 10
1190.8347897583469
 20
984.53300181254644
 30
0.0
 40
4.0
  1
V
  0
ENDBLK
  5
48A
  8
0
  0
BLOCK
  8
0
  2
*U53
 70
     1
 10
0.0
 20
0.0
 30
0.0
  3
*U53
  1

  0
TEXT
  5
48C
  8
AIRCOMPONENTS_-_ELEKTRO
 62
     7
 10
1200.854435051662
 20
984.53300181254554
 30
0.0
 40
4.0
  1
W
  0
ENDBLK
  5
48E
  8
0
  0
BLOCK
  8
0
  2
*U54
 70
     1
 10
0.0
 20
0.0
 30
0.0
  3
*U54
  1

  0
TEXT
  5
490
  8
AIRCOMPONENTS_-_ELEKTRO
 62
     7
 10
1122.278924125065
 20
991.44972141360108
 30
0.0
 40
4.0
  1
Mains
  0
ENDBLK
  5
492
  8
0
  0
BLOCK
  8
0
  2
*U55
 70
     1
 10
0.0
 20
0.0
 30
0.0
  3
*U55
  1

  0
TEXT
  5
494
  8
AIRCOMPONENTS_-_ELEKTRO
 62
     7
 10
1180.7051853927251
 20
991.44972141360017
 30
0.0
 40
4.0
  1
Motor out
  0
ENDBLK
  5
496
  8
0
  0
BLOCK
  8
0
  2
*U56
 70
     1
 10
0.0
 20
0.0
 30
0.0
  3
*U56
  1

  0
TEXT
  5
498
  8
AIRCOMPONENTS_-_ELEKTRO
 62
     7
 10
1121.1885947968531
 20
1006.468414595982
 30
0.0
 40
4.0
  1
Fre. menič VACON 10, M12
  0
TEXT
  5
499
  8
AIRCOMPONENTS_-_ELEKTRO
 62
     7
 10
1091.6006002538791
 20
999.73353510530444
 30
0.0
 40
4.0
  1
VACON0010 - 1L - 0004 - 2 - 0,75kW, 230 / 3x230V
  0
ENDBLK
  5
49B
  8
0
  0
BLOCK
  8
0
  2
*U57
 70
     1
 10
0.0
 20
0.0
 30
0.0
  3
*U57
  1

  0
TEXT
  5
49D
  8
AIRCOMPONENTS_-_ELEKTRO
 62
     7
 10
1092.6185057347509
 20
1078.5403690945909
 30
0.0
 40
3.0
  1
1
  0
ENDBLK
  5
49F
  8
0
  0
BLOCK
  8
0
  2
*U58
 70
     1
 10
0.0
 20
0.0
 30
0.0
  3
*U58
  1

  0
TEXT
  5
4A1
  8
AIRCOMPONENTS_-_ELEKTRO
 62
     7
 10
1103.311070536929
 20
1078.5403690945909
 30
0.0
 40
3.0
  1
2
  0
ENDBLK
  5
4A3
  8
0
  0
BLOCK
  8
0
  2
*U59
 70
     1
 10
0.0
 20
0.0
 30
0.0
  3
*U59
  1

  0
TEXT
  5
4A5
  8
AIRCOMPONENTS_-_ELEKTRO
 62
     7
 10
1114.069119650158
 20
1078.566972095955
 30
0.0
 40
3.0
  1
3
  0
ENDBLK
  5
4A7
  8
0
  0
BLOCK
  8
0
  2
*U60
 70
     1
 10
0.0
 20
0.0
 30
0.0
  3
*U60
  1

  0
TEXT
  5
4A9
  8
AIRCOMPONENTS_-_ELEKTRO
 62
     7
 10
1124.879351573755
 20
1078.565948903595
 30
0.0
 40
3.0
  1
6
  0
ENDBLK
  5
4AB
  8
0
  0
BLOCK
  8
0
  2
*U61
 70
     1
 10
0.0
 20
0.0
 30
0.0
  3
*U61
  1

  0
TEXT
  5
4AD
  8
AIRCOMPONENTS_-_ELEKTRO
 62
     7
 10
1135.6578645341881
 20
1078.5465082487519
 30
0.0
 40
3.0
  1
7
  0
ENDBLK
  5
4AF
  8
0
  0
BLOCK
  8
0
  2
*U62
 70
     1
 10
0.0
 20
0.0
 30
0.0
  3
*U62
  1

  0
TEXT
  5
4B1
  8
AIRCOMPONENTS_-_ELEKTRO
 62
     7
 10
1146.4691196501451
 20
1078.565948903595
 30
0.0
 40
3.0
  1
8
  0
ENDBLK
  5
4B3
  8
0
  0
BLOCK
  8
0
  2
*U63
 70
     1
 10
0.0
 20
0.0
 30
0.0
  3
*U63
  1

  0
TEXT
  5
4B5
  8
AIRCOMPONENTS_-_ELEKTRO
 62
     7
 10
1157.2670732654201
 20
1078.565948903595
 30
0.0
 40
3.0
  1
9
  0
ENDBLK
  5
4B7
  8
0
  0
BLOCK
  8
0
  2
*U64
 70
     1
 10
0.0
 20
0.0
 30
0.0
  3
*U64
  1

  0
TEXT
  5
4B9
  8
AIRCOMPONENTS_-_ELEKTRO
 62
     7
 10
1166.768642160368
 20
1078.565948903595
 30
0.0
 40
3.0
  1
10
  0
ENDBLK
  5
4BB
  8
0
  0
BLOCK
  8
0
  2
*U65
 70
     1
 10
0.0
 20
0.0
 30
0.0
  3
*U65
  1

  0
TEXT
  5
4BD
  8
AIRCOMPONENTS_-_ELEKTRO
 62
     7
 10
1097.8588877265629
 20
1090.2136126896339
 30
0.0
 40
3.0
  1
5
  0
ENDBLK
  5
4BF
  8
0
  0
BLOCK
  8
0
  2
*U66
 70
     1
 10
0.0
 20
0.0
 30
0.0
  3
*U66
  1

  0
TEXT
  5
4C1
  8
AIRCOMPONENTS_-_ELEKTRO
 62
     7
 10
1087.1366503459401
 20
1090.188032880629
 30
0.0
 40
3.0
  1
4
  0
ENDBLK
  5
4C3
  8
0
  0
BLOCK
  8
0
  2
*U67
 70
     1
 10
0.0
 20
0.0
 30
0.0
  3
*U67
  1

  0
TEXT
  5
4C5
  8
AIRCOMPONENTS_-_ELEKTRO
 62
     7
 10
1107.363526198591
 20
1090.2084967278331
 30
0.0
 40
3.0
  1
13
  0
ENDBLK
  5
4C7
  8
0
  0
BLOCK
  8
0
  2
*U68
 70
     1
 10
0.0
 20
0.0
 30
0.0
  3
*U68
  1

  0
TEXT
  5
4C9
  8
AIRCOMPONENTS_-_ELEKTRO
 62
     7
 10
1118.1696653527481
 20
1090.1818937264679
 30
0.0
 40
3.0
  1
14
  0
ENDBLK
  5
4CB
  8
0
  0
BLOCK
  8
0
  2
*U69
 70
     1
 10
0.0
 20
0.0
 30
0.0
  3
*U69
  1

  0
TEXT
  5
4CD
  8
AIRCOMPONENTS_-_ELEKTRO
 62
     7
 10
1128.9522710826211
 20
1090.207473535472
 30
0.0
 40
3.0
  1
15
  0
ENDBLK
  5
4CF
  8
0
  0
BLOCK
  8
0
  2
*U70
 70
     1
 10
0.0
 20
0.0
 30
0.0
  3
*U70
  1

  0
TEXT
  5
4D1
  8
AIRCOMPONENTS_-_ELEKTRO
 62
     7
 10
1139.7645493909381
 20
1090.207473535472
 30
0.0
 40
3.0
  1
16
  0
ENDBLK
  5
4D3
  8
0
  0
BLOCK
  8
0
  2
*U71
 70
     1
 10
0.0
 20
0.0
 30
0.0
  3
*U71
  1

  0
TEXT
  5
4D5
  8
AIRCOMPONENTS_-_ELEKTRO
 62
     7
 10
1150.5604566214929
 20
1090.207473535472
 30
0.0
 40
3.0
  1
18
  0
ENDBLK
  5
4D7
  8
0
  0
BLOCK
  8
0
  2
*U72
 70
     1
 10
0.0
 20
0.0
 30
0.0
  3
*U72
  1

  0
TEXT
  5
4D9
  8
AIRCOMPONENTS_-_ELEKTRO
 62
     7
 10
1161.535422515077
 20
1090.207473535472
 30
0.0
 40
3.0
  1
20
  0
ENDBLK
  5
4DB
  8
0
  0
BLOCK
  8
0
  2
*U73
 70
     1
 10
0.0
 20
0.0
 30
0.0
  3
*U73
  1

  0
TEXT
  5
4DD
  8
AIRCOMPONENTS_-_ELEKTRO
 62
     7
 10
1149.352833610729
 20
1043.973599831309
 30
0.0
 40
2.5
  1
DI1 Start forward
  0
ENDBLK
  5
4DF
  8
0
  0
BLOCK
  8
0
  2
*U74
 70
     1
 10
0.0
 20
0.0
 30
0.0
  3
*U74
  1

  0
TEXT
  5
4E1
  8
AIRCOMPONENTS_-_ELEKTRO
 62
     7
 10
1126.991840094382
 20
1038.6582318446881
 30
0.0
 40
2.5
  1
24V out
  0
ENDBLK
  5
4E3
  8
0
  0
BLOCK
  8
0
  2
*U75
 70
     1
 10
0.0
 20
0.0
 30
0.0
  3
*U75
  1

  0
TEXT
  5
4E5
  8
AIRCOMPONENTS_-_ELEKTRO
 62
     7
 10
1104.842058239152
 20
1025.0182146607799
 30
0.0
 40
2.5
  1
AI1, Analog signal in
  0
ENDBLK
  5
4E7
  8
0
  0
BLOCK
  8
0
  2
*U76
 70
     1
 10
0.0
 20
0.0
 30
0.0
  3
*U76
  1

  0
TEXT
  5
4E9
  8
AIRCOMPONENTS_-_ELEKTRO
 62
     7
 10
1116.0339151203759
 20
1031.3958736633999
 30
0.0
 40
2.5
  1
GND
  0
ENDBLK
  5
4EB
  8
0
  0
BLOCK
  8
0
  2
*U77
 70
     1
 10
0.0
 20
0.0
 30
0.0
  3
*U77
  1

  0
TEXT
  5
4ED
  8
AIRCOMPONENTS_-_ELEKTRO
 62
     7
 10
1148.6415279482869
 20
1101.126691601087
 30
0.0
 40
5.0
  1
FR-1
  0
ENDBLK
  5
4EF
  8
0
  0
BLOCK
  8
0
  2
*U78
 70
     1
 10
0.0
 20
0.0
 30
0.0
  3
*U78
  1

  0
TEXT
  5
4F1
  8
AIRCOMPONENTS_-_ELEKTRO
 62
     7
 10
1177.3386956261661
 20
1090.1818937264679
 30
0.0
 40
3.0
  1
22
  0
ENDBLK
  5
4F3
  8
0
  0
BLOCK
  8
0
  2
*U79
 70
     1
 10
0.0
 20
0.0
 30
0.0
  3
*U79
  1

  0
TEXT
  5
4F5
  8
AIRCOMPONENTS_-_ELEKTRO
 62
     7
 10
1188.1233477407591
 20
1090.2084967278331
 30
0.0
 40
3.0
  1
23
  0
ENDBLK
  5
4F7
  8
0
  0
BLOCK
  8
0
  2
*U80
 70
     1
 10
0.0
 20
0.0
 30
0.0
  3
*U80
  1

  0
TEXT
  5
4F9
  8
AIRCOMPONENTS_-_ELEKTRO
 62
     7
 10
1194.3807829385739
 20
1078.5465082487519
 30
0.0
 40
3.0
  1
B
  0
ENDBLK
  5
4FB
  8
0
  0
BLOCK
  8
0
  2
*U81
 70
     1
 10
0.0
 20
0.0
 30
0.0
  3
*U81
  1

  0
TEXT
  5
4FD
  8
AIRCOMPONENTS_-_ELEKTRO
 62
     7
 10
1183.6227338253459
 20
1078.5465082487519
 30
0.0
 40
3.0
  1
A
  0
ENDBLK
  5
4FF
  8
0
  0
BLOCK
  8
0
  2
*U82
 70
     1
 10
0.0
 20
0.0
 30
0.0
  3
*U82
  1

  0
TEXT
  5
501
  8
AIRCOMPONENTS_-_ELEKTRO
 62
     7
 10
1203.9317368136501
 20
1090.1818937264679
 30
0.0
 40
3.0
  1
22
  0
ENDBLK
  5
503
  8
0
  0
BLOCK
  8
0
  2
*U83
 70
     1
 10
0.0
 20
0.0
 30
0.0
  3
*U83
  1

  0
TEXT
  5
505
  8
AIRCOMPONENTS_-_ELEKTRO
 62
     7
 10
1214.7163889282431
 20
1090.2084967278331
 30
0.0
 40
3.0
  1
23
  0
ENDBLK
  5
507
  8
0
  0
BLOCK
  8
0
  2
*U84
 70
     1
 10
0.0
 20
0.0
 30
0.0
  3
*U84
  1

  0
TEXT
  5
509
  8
AIRCOMPONENTS_-_ELEKTRO
 62
     7
 10
1220.9738241260579
 20
1078.5465082487519
 30
0.0
 40
3.0
  1
B
  0
ENDBLK
  5
50B
  8
0
  0
BLOCK
  8
0
  2
*U85
 70
     1
 10
0.0
 20
0.0
 30
0.0
  3
*U85
  1

  0
TEXT
  5
50D
  8
AIRCOMPONENTS_-_ELEKTRO
 62
     7
 10
1210.215775012829
 20
1078.5465082487519
 30
0.0
 40
3.0
  1
A
  0
ENDBLK
  5
50F
  8
0
  0
BLOCK
  8
0
  2
*U86
 70
     1
 10
0.0
 20
0.0
 30
0.0
  3
*U86
  1

  0
TEXT
  5
511
  8
AIRCOMPONENTS_-_ELEKTRO
 62
     7
 10
1157.2269285625421
 20
1056.5611670535141
 30
0.0
 40
2.5
  1
DI2
 50
90.0
  0
TEXT
  5
512
  8
AIRCOMPONENTS_-_ELEKTRO
 62
     7
 10
1161.436228244215
 20
1049.322933765656
 30
0.0
 40
2.5
  1
Start reverse
 50
90.0
  0
ENDBLK
  5
514
  8
0
  0
BLOCK
  8
0
  2
*U87
 70
     1
 10
0.0
 20
0.0
 30
0.0
  3
*U87
  1

  0
TEXT
  5
516
  8
AIRCOMPONENTS_-_ELEKTRO
 62
     7
 10
1094.532045980317
 20
1038.732036756124
 30
0.0
 40
2.5
  1
+10V ref.volage  out
 50
90.0
  0
ENDBLK
  5
518
  8
0
  0
ENDSEC
  0
SECTION
  2
ENTITIES
  0
LINE
  5
1A1
  8
AIRCOMPONENTS_-_ELEKTRO
 10
1082.757050712891
 20
975.41736172696938
 30
0.0
 11
1229.3418305588509
 21
975.41736172695926
 31
0.0
  0
LINE
  5
1A2
  8
AIRCOMPONENTS_-_ELEKTRO
 10
1229.3418305588509
 20
1095.978561231949
 30
0.0
 11
1082.7570507128951
 21
1095.978561231954
 31
0.0
  0
LINE
  5
1A3
  8
AIRCOMPONENTS_-_ELEKTRO
  6
HIDDEN
 62
     7
 10
1156.0494406358721
 20
997.17351576253213
 30
0.0
 11
1156.0494406358721
 21
975.41736172696574
 31
0.0
  0
LINE
  5
1A4
  8
AIRCOMPONENTS_-_ELEKTRO
 10
1082.7570507128951
 20
1095.978561231954
 30
0.0
 11
1082.757050712893
 21
975.41736172696483
 31
0.0
  0
CIRCLE
  5
1A5
  8
AIRCOMPONENTS_-_ELEKTRO
 62
     5
 10
1129.6960910708799
 20
980.51455614523775
 30
0.0
 40
2.0
  0
CIRCLE
  5
1A6
  8
AIRCOMPONENTS_-_ELEKTRO
 62
     5
 10
1140.496091070876
 20
980.51455614523775
 30
0.0
 40
2.0
  0
LINE
  5
1A7
  8
AIRCOMPONENTS_-_ELEKTRO
 62
     5
 10
1129.6960910708799
 20
959.88241157948096
 30
0.0
 11
1129.6960910708799
 21
978.51455614523775
 31
0.0
  0
CIRCLE
  5
1A8
  8
AIRCOMPONENTS_-_ELEKTRO
 62
     5
 10
1118.8960910708811
 20
980.51455614523775
 30
0.0
 40
2.0
  0
LINE
  5
1A9
  8
AIRCOMPONENTS_-_ELEKTRO
 62
     5
 10
1097.2960910708789
 20
959.88241157948096
 30
0.0
 11
1097.2960910708789
 21
978.51455614523775
 31
0.0
  0
INSERT
  5
1AA
  8
0
  2
*U47
 10
0.0
 20
0.0
 30
0.0
  0
INSERT
  5
1AB
  8
0
  2
*U48
 10
0.0
 20
0.0
 30
0.0
  0
INSERT
  5
1AC
  8
0
  2
*U49
 10
0.0
 20
0.0
 30
0.0
  0
INSERT
  5
1AD
  8
0
  2
*U50
 10
0.0
 20
0.0
 30
0.0
  0
LINE
  5
1AE
  8
AIRCOMPONENTS_-_ELEKTRO
 62
     5
 10
1101.929474177969
 20
978.51455614523775
 30
0.0
 11
1092.662707963791
 21
978.51455614523775
 31
0.0
  0
LINE
  5
1AF
  8
AIRCOMPONENTS_-_ELEKTRO
 62
     5
 10
1101.0215238665551
 20
980.08717221535107
 30
0.0
 11
1093.5706582752041
 21
980.08717221534926
 31
0.0
  0
LINE
  5
1B0
  8
AIRCOMPONENTS_-_ELEKTRO
 62
     5
 10
1100.113573555145
 20
981.65978828546258
 30
0.0
 11
1094.478608586614
 21
981.65978828546258
 31
0.0
  0
LINE
  5
1B1
  8
AIRCOMPONENTS_-_ELEKTRO
 62
     5
 10
1099.205623243733
 20
983.232404355575
 30
0.0
 11
1095.3865588980259
 21
983.232404355575
 31
0.0
  0
CIRCLE
  5
1B2
  8
AIRCOMPONENTS_-_ELEKTRO
 62
     5
 10
1192.695635597365
 20
980.51455614523684
 30
0.0
 40
2.0
  0
CIRCLE
  5
1B3
  8
AIRCOMPONENTS_-_ELEKTRO
 62
     5
 10
1203.4956355973609
 20
980.51455614523684
 30
0.0
 40
2.0
  0
LINE
  5
1B4
  8
AIRCOMPONENTS_-_ELEKTRO
 62
     5
 10
1192.6956355973621
 20
959.88241157948096
 30
0.0
 11
1192.6956355973609
 21
978.51455614523695
 31
0.0
  0
CIRCLE
  5
1B5
  8
AIRCOMPONENTS_-_ELEKTRO
 62
     5
 10
1181.895635597366
 20
980.51455614523684
 30
0.0
 40
2.0
  0
LINE
  5
1B6
  8
AIRCOMPONENTS_-_ELEKTRO
 62
     5
 10
1181.8956355973619
 20
959.88241157948096
 30
0.0
 11
1181.8956355973619
 21
978.51455614523695
 31
0.0
  0
INSERT
  5
1B7
  8
0
  2
*U51
 10
0.0
 20
0.0
 30
0.0
  0
INSERT
  5
1B8
  8
0
  2
*U52
 10
0.0
 20
0.0
 30
0.0
  0
INSERT
  5
1B9
  8
0
  2
*U53
 10
0.0
 20
0.0
 30
0.0
  0
LINE
  5
1BA
  8
AIRCOMPONENTS_-_ELEKTRO
 10
1229.3418305588509
 20
1095.978561231949
 30
0.0
 11
1229.3418305588509
 21
975.41736172695926
 31
0.0
  0
INSERT
  5
1BB
  8
0
  2
*U54
 10
0.0
 20
0.0
 30
0.0
  0
INSERT
  5
1BC
  8
0
  2
*U55
 10
0.0
 20
0.0
 30
0.0
  0
LINE
  5
1BD
  8
AIRCOMPONENTS_-_ELEKTRO
  6
HIDDEN
 62
     7
 10
1082.757050712893
 20
997.17351576253031
 30
0.0
 11
1156.0494406358721
 21
997.17351576253122
 31
0.0
  0
LINE
  5
1BE
  8
AIRCOMPONENTS_-_ELEKTRO
  6
HIDDEN
 62
     7
 10
1156.0494406358721
 20
997.17351576253122
 30
0.0
 11
1229.3418305588491
 21
997.17351576253122
 31
0.0
  0
INSERT
  5
1BF
  8
0
  2
*U56
 10
0.0
 20
0.0
 30
0.0
  0
LINE
  5
1C0
  8
AIRCOMPONENTS_-_ELEKTRO
  6
HIDDEN
 62
     7
 10
1082.757050712893
 20
1012.167855321614
 30
0.0
 11
1229.3418305588491
 21
1012.167855321613
 31
0.0
  0
CIRCLE
  5
1C1
  8
AIRCOMPONENTS_-_ELEKTRO
 62
     7
 10
1093.6273734018721
 20
1075.3456574939551
 30
0.0
 40
2.0
  0
INSERT
  5
1C2
  8
0
  2
*U57
 10
0.0
 20
0.0
 30
0.0
  0
CIRCLE
  5
1C3
  8
AIRCOMPONENTS_-_ELEKTRO
 62
     7
 10
1104.427373401868
 20
1075.3456574939551
 30
0.0
 40
2.0
  0
INSERT
  5
1C4
  8
0
  2
*U58
 10
0.0
 20
0.0
 30
0.0
  0
CIRCLE
  5
1C5
  8
AIRCOMPONENTS_-_ELEKTRO
 62
     7
 10
1115.2273734018629
 20
1075.3456574939551
 30
0.0
 40
2.0
  0
INSERT
  5
1C6
  8
0
  2
*U59
 10
0.0
 20
0.0
 30
0.0
  0
CIRCLE
  5
1C7
  8
AIRCOMPONENTS_-_ELEKTRO
 62
     7
 10
1126.027373401859
 20
1075.3456574939551
 30
0.0
 40
2.0
  0
INSERT
  5
1C8
  8
0
  2
*U60
 10
0.0
 20
0.0
 30
0.0
  0
CIRCLE
  5
1C9
  8
AIRCOMPONENTS_-_ELEKTRO
 62
     7
 10
1136.8273734018551
 20
1075.3456574939551
 30
0.0
 40
2.0
  0
INSERT
  5
1CA
  8
0
  2
*U61
 10
0.0
 20
0.0
 30
0.0
  0
CIRCLE
  5
1CB
  8
AIRCOMPONENTS_-_ELEKTRO
 62
     7
 10
1147.62737340185
 20
1075.3456574939551
 30
0.0
 40
2.0
  0
INSERT
  5
1CC
  8
0
  2
*U62
 10
0.0
 20
0.0
 30
0.0
  0
CIRCLE
  5
1CD
  8
AIRCOMPONENTS_-_ELEKTRO
 62
     7
 10
1158.4273734018459
 20
1075.3456574939551
 30
0.0
 40
2.0
  0
INSERT
  5
1CE
  8
0
  2
*U63
 10
0.0
 20
0.0
 30
0.0
  0
CIRCLE
  5
1CF
  8
AIRCOMPONENTS_-_ELEKTRO
 62
     7
 10
1169.227373401842
 20
1075.3456574939551
 30
0.0
 40
2.0
  0
INSERT
  5
1D0
  8
0
  2
*U64
 10
0.0
 20
0.0
 30
0.0
  0
CIRCLE
  5
1D1
  8
AIRCOMPONENTS_-_ELEKTRO
 62
     7
 10
1099.0273734018699
 20
1086.9871821258321
 30
0.0
 40
2.0
  0
INSERT
  5
1D2
  8
0
  2
*U65
 10
0.0
 20
0.0
 30
0.0
  0
CIRCLE
  5
1D3
  8
AIRCOMPONENTS_-_ELEKTRO
 62
     7
 10
1088.227373401874
 20
1086.9871821258321
 30
0.0
 40
2.0
  0
INSERT
  5
1D4
  8
0
  2
*U66
 10
0.0
 20
0.0
 30
0.0
  0
CIRCLE
  5
1D5
  8
AIRCOMPONENTS_-_ELEKTRO
 62
     7
 10
1109.8273734018651
 20
1086.9871821258321
 30
0.0
 40
2.0
  0
INSERT
  5
1D6
  8
0
  2
*U67
 10
0.0
 20
0.0
 30
0.0
  0
CIRCLE
  5
1D7
  8
AIRCOMPONENTS_-_ELEKTRO
 62
     7
 10
1120.627373401861
 20
1086.9871821258321
 30
0.0
 40
2.0
  0
INSERT
  5
1D8
  8
0
  2
*U68
 10
0.0
 20
0.0
 30
0.0
  0
CIRCLE
  5
1D9
  8
AIRCOMPONENTS_-_ELEKTRO
 62
     7
 10
1131.427373401857
 20
1086.9871821258321
 30
0.0
 40
2.0
  0
INSERT
  5
1DA
  8
0
  2
*U69
 10
0.0
 20
0.0
 30
0.0
  0
CIRCLE
  5
1DB
  8
AIRCOMPONENTS_-_ELEKTRO
 62
     7
 10
1142.227373401852
 20
1086.9871821258321
 30
0.0
 40
2.0
  0
INSERT
  5
1DC
  8
0
  2
*U70
 10
0.0
 20
0.0
 30
0.0
  0
CIRCLE
  5
1DD
  8
AIRCOMPONENTS_-_ELEKTRO
 62
     7
 10
1153.0273734018481
 20
1086.9871821258321
 30
0.0
 40
2.0
  0
INSERT
  5
1DE
  8
0
  2
*U71
 10
0.0
 20
0.0
 30
0.0
  0
CIRCLE
  5
1DF
  8
AIRCOMPONENTS_-_ELEKTRO
 62
     7
 10
1163.8273734018439
 20
1086.9871821258321
 30
0.0
 40
2.0
  0
INSERT
  5
1E0
  8
0
  2
*U72
 10
0.0
 20
0.0
 30
0.0
  0
LINE
  5
1E1
  8
AIRCOMPONENTS_-_ELEKTRO
 62
     7
 10
1181.2993550886199
 20
1071.0806752959099
 30
0.0
 11
1199.5414740900339
 21
1071.0806752959099
 31
0.0
  0
LINE
  5
1E2
  8
AIRCOMPONENTS_-_ELEKTRO
 62
     1
 10
1104.427373401868
 20
1073.3456574939551
 30
0.0
 11
1104.427373401868
 21
1023.959060517143
 31
0.0
  0
LINE
  5
1E3
  8
AIRCOMPONENTS_-_ELEKTRO
 62
     1
 10
1115.2273734018629
 20
1073.3456574939551
 30
0.0
 11
1115.2273734018629
 21
1030.2498677605261
 31
0.0
  0
LINE
  5
1E4
  8
AIRCOMPONENTS_-_ELEKTRO
 62
     1
 10
1126.027373401859
 20
1073.3456574939551
 30
0.0
 11
1126.027373401859
 21
1037.670094272821
 31
0.0
  0
LINE
  5
1E5
  8
AIRCOMPONENTS_-_ELEKTRO
 62
     1
 10
1147.62737340185
 20
1073.3456574939551
 30
0.0
 11
1147.62737340185
 21
1042.8314822472839
 31
0.0
  0
LINE
  5
1E6
  8
AIRCOMPONENTS_-_ELEKTRO
 62
     1
 10
1147.62737340185
 20
1042.8314822472839
 30
0.0
 11
1242.0319550324441
 21
1042.8314822472839
 31
0.0
  0
LINE
  5
1E7
  8
AIRCOMPONENTS_-_ELEKTRO
 62
     1
 10
1104.427373401868
 20
1023.959060517143
 30
0.0
 11
1242.0319550324421
 21
1023.959060517145
 31
0.0
  0
LINE
  5
1E8
  8
AIRCOMPONENTS_-_ELEKTRO
 62
     1
 10
1115.2273734018629
 20
1030.2498677605261
 30
0.0
 11
1242.0319550324421
 21
1030.249867760524
 31
0.0
  0
INSERT
  5
1E9
  8
0
  2
*U73
 10
0.0
 20
0.0
 30
0.0
  0
INSERT
  5
1EA
  8
0
  2
*U74
 10
0.0
 20
0.0
 30
0.0
  0
LINE
  5
1EB
  8
AIRCOMPONENTS_-_ELEKTRO
 62
     1
 10
1126.027373401859
 20
1037.670094272821
 30
0.0
 11
1242.03195503244
 21
1037.670094272821
 31
0.0
  0
INSERT
  5
1EC
  8
0
  2
*U75
 10
0.0
 20
0.0
 30
0.0
  0
INSERT
  5
1ED
  8
0
  2
*U76
 10
0.0
 20
0.0
 30
0.0
  0
LINE
  5
1EE
  8
AIRCOMPONENTS_-_ELEKTRO
 62
     5
 10
1118.896091070877
 20
959.88241157948084
 30
0.0
 11
1118.896091070877
 21
978.51455614523854
 31
0.0
  0
INSERT
  5
1EF
  8
0
  2
*U77
 10
0.0
 20
0.0
 30
0.0
  0
CIRCLE
  5
1F0
  8
AIRCOMPONENTS_-_ELEKTRO
 62
     7
 10
1179.6204145893309
 20
1086.9871821258321
 30
0.0
 40
2.0
  0
INSERT
  5
1F1
  8
0
  2
*U78
 10
0.0
 20
0.0
 30
0.0
  0
CIRCLE
  5
1F2
  8
AIRCOMPONENTS_-_ELEKTRO
 62
     7
 10
1190.420414589327
 20
1086.9871821258321
 30
0.0
 40
2.0
  0
INSERT
  5
1F3
  8
0
  2
*U79
 10
0.0
 20
0.0
 30
0.0
  0
CIRCLE
  5
1F4
  8
AIRCOMPONENTS_-_ELEKTRO
 62
     7
 10
1195.8204145893251
 20
1075.3456574939551
 30
0.0
 40
2.0
  0
INSERT
  5
1F5
  8
0
  2
*U80
 10
0.0
 20
0.0
 30
0.0
  0
CIRCLE
  5
1F6
  8
AIRCOMPONENTS_-_ELEKTRO
 62
     7
 10
1185.020414589329
 20
1075.3456574939551
 30
0.0
 40
2.0
  0
INSERT
  5
1F7
  8
0
  2
*U81
 10
0.0
 20
0.0
 30
0.0
  0
LINE
  5
1F8
  8
AIRCOMPONENTS_-_ELEKTRO
 62
     7
 10
1175.8993550886239
 20
1082.1697547627341
 30
0.0
 11
1199.5414740900339
 21
1082.1697547627341
 31
0.0
  0
LINE
  5
1F9
  8
AIRCOMPONENTS_-_ELEKTRO
 62
     7
 10
1175.8993550886239
 20
1082.1697547627341
 30
0.0
 11
1175.8993550886221
 21
1095.9785612319511
 31
0.0
  0
LINE
  5
1FA
  8
AIRCOMPONENTS_-_ELEKTRO
 62
     7
 10
1194.1414740900359
 20
1082.1697547627341
 30
0.0
 11
1194.1414740900359
 21
1095.9785612319499
 31
0.0
  0
LINE
  5
1FB
  8
AIRCOMPONENTS_-_ELEKTRO
 62
     7
 10
1181.2993550886199
 20
1071.0806752959099
 30
0.0
 11
1181.299355088622
 21
1082.1697547627341
 31
0.0
  0
LINE
  5
1FC
  8
AIRCOMPONENTS_-_ELEKTRO
 62
     7
 10
1199.5414740900339
 20
1071.0806752959099
 30
0.0
 11
1199.5414740900339
 21
1082.1697547627341
 31
0.0
  0
LINE
  5
1FD
  8
AIRCOMPONENTS_-_ELEKTRO
 62
     7
 10
1084.506313901167
 20
1082.1697547627341
 30
0.0
 11
1172.9484329025511
 21
1082.1697547627341
 31
0.0
  0
LINE
  5
1FE
  8
AIRCOMPONENTS_-_ELEKTRO
 62
     7
 10
1167.548432902553
 20
1082.1697547627341
 30
0.0
 11
1167.548432902553
 21
1095.9785612319499
 31
0.0
  0
LINE
  5
1FF
  8
AIRCOMPONENTS_-_ELEKTRO
 62
     7
 10
1172.9484329025511
 20
1071.0806752959099
 30
0.0
 11
1172.9484329025511
 21
1082.1697547627341
 31
0.0
  0
LINE
  5
200
  8
AIRCOMPONENTS_-_ELEKTRO
 62
     7
 10
1089.906313901163
 20
1071.0806752959099
 30
0.0
 11
1172.9484329025511
 21
1071.0806752959099
 31
0.0
  0
LINE
  5
201
  8
AIRCOMPONENTS_-_ELEKTRO
 62
     7
 10
1084.506313901167
 20
1082.1697547627341
 30
0.0
 11
1084.506313901165
 21
1095.9785612319511
 31
0.0
  0
LINE
  5
202
  8
AIRCOMPONENTS_-_ELEKTRO
 62
     7
 10
1089.906313901163
 20
1071.0806752959099
 30
0.0
 11
1089.906313901165
 21
1082.1697547627341
 31
0.0
  0
LINE
  5
203
  8
AIRCOMPONENTS_-_ELEKTRO
 62
     7
 10
1207.892396276103
 20
1071.0806752959099
 30
0.0
 11
1226.134515277517
 21
1071.0806752959099
 31
0.0
  0
CIRCLE
  5
204
  8
AIRCOMPONENTS_-_ELEKTRO
 62
     7
 10
1206.213455776815
 20
1086.9871821258321
 30
0.0
 40
2.0
  0
INSERT
  5
205
  8
0
  2
*U82
 10
0.0
 20
0.0
 30
0.0
  0
CIRCLE
  5
206
  8
AIRCOMPONENTS_-_ELEKTRO
 62
     7
 10
1217.0134557768099
 20
1086.9871821258321
 30
0.0
 40
2.0
  0
INSERT
  5
207
  8
0
  2
*U83
 10
0.0
 20
0.0
 30
0.0
  0
CIRCLE
  5
208
  8
AIRCOMPONENTS_-_ELEKTRO
 62
     7
 10
1222.413455776808
 20
1075.3456574939551
 30
0.0
 40
2.0
  0
INSERT
  5
209
  8
0
  2
*U84
 10
0.0
 20
0.0
 30
0.0
  0
CIRCLE
  5
20A
  8
AIRCOMPONENTS_-_ELEKTRO
 62
     7
 10
1211.613455776813
 20
1075.3456574939551
 30
0.0
 40
2.0
  0
INSERT
  5
20B
  8
0
  2
*U85
 10
0.0
 20
0.0
 30
0.0
  0
LINE
  5
20C
  8
AIRCOMPONENTS_-_ELEKTRO
 62
     7
 10
1202.4923962761079
 20
1082.1697547627341
 30
0.0
 11
1226.134515277517
 21
1082.1697547627341
 31
0.0
  0
LINE
  5
20D
  8
AIRCOMPONENTS_-_ELEKTRO
 62
     7
 10
1202.4923962761079
 20
1082.1697547627341
 30
0.0
 11
1202.4923962761061
 21
1095.9785612319511
 31
0.0
  0
LINE
  5
20E
  8
AIRCOMPONENTS_-_ELEKTRO
 62
     7
 10
1220.734515277519
 20
1082.1697547627341
 30
0.0
 11
1220.734515277519
 21
1095.9785612319499
 31
0.0
  0
LINE
  5
20F
  8
AIRCOMPONENTS_-_ELEKTRO
 62
     7
 10
1207.892396276103
 20
1071.0806752959099
 30
0.0
 11
1207.892396276105
 21
1082.1697547627341
 31
0.0
  0
LINE
  5
210
  8
AIRCOMPONENTS_-_ELEKTRO
 10
1226.134515277517
 20
1071.0806752959099
 30
0.0
 11
1226.134515277517
 21
1082.1697547627341
 31
0.0
  0
LINE
  5
211
  8
AIRCOMPONENTS_-_ELEKTRO
 62
     5
 10
1203.49563559736
 20
959.88241157948096
 30
0.0
 11
1203.4956355973609
 21
978.51455614523604
 31
0.0
  0
INSERT
  5
218
  8
0
  2
*U86
 10
0.0
 20
0.0
 30
0.0
  0
INSERT
  5
219
  8
0
  2
*U87
 10
0.0
 20
0.0
 30
0.0
  0
LINE
  5
221
  8
AIRCOMPONENTS_-_ELEKTRO
 62
     1
 10
1158.4273734018459
 20
1073.3456574939551
 30
0.0
 11
1158.4273734018459
 21
1047.9928702217469
 31
0.0
  0
ENDSEC
  0
EOF
